  0
SECTION
  2
HEADER
  9
$ACADVER
  1
AC1015
  9
$ACADMAINTVER
 70
     6
  9
$DWGCODEPAGE
  3
ANSI_932
  9
$INSBASE
 10
0.0
 20
0.0
 30
0.0
  9
$EXTMIN
 10
-570.001633
 20
-413.36625
 30
0.0
  9
$EXTMAX
 10
569.998367
 20
413.36625
 30
0.0
  9
$LIMMIN
 10
-210.0
 20
-148.5
  9
$LIMMAX
 10
210.0
 20
148.5
  9
$ORTHOMODE
 70
     0
  9
$REGENMODE
 70
     1
  9
$FILLMODE
 70
     1
  9
$QTEXTMODE
 70
     0
  9
$MIRRTEXT
 70
     1
  9
$LTSCALE
 40
0.25
  9
$ATTMODE
 70
     1
  9
$TEXTSIZE
 40
0.2
  9
$TRACEWID
 40
0.05
  9
$TEXTSTYLE
  7
Standard
  9
$CLAYER
  8
0
  9
$CELTYPE
  6
ByLayer
  9
$CECOLOR
 62
   256
  9
$CELTSCALE
 40
1.0
  9
$DISPSILH
 70
     0
  9
$DIMSCALE
 40
1.0
  9
$DIMASZ
 40
3.000001907348633
  9
$DIMEXO
 40
1.0
  9
$DIMDLI
 40
10.0
  9
$DIMRND
 40
0.0
  9
$DIMDLE
 40
0.0
  9
$DIMEXE
 40
1.0
  9
$DIMTP
 40
0.0
  9
$DIMTM
 40
0.0
  9
$DIMTXT
 40
3.5
  9
$DIMCEN
 40
0.0
  9
$DIMTSZ
 40
0.0
  9
$DIMTOL
 70
     0
  9
$DIMLIM
 70
     0
  9
$DIMTIH
 70
     0
  9
$DIMTOH
 70
     0
  9
$DIMSE1
 70
     0
  9
$DIMSE2
 70
     0
  9
$DIMTAD
 70
     1
  9
$DIMZIN
 70
     8
  9
$DIMBLK
  1

  9
$DIMASO
 70
     1
  9
$DIMSHO
 70
     1
  9
$DIMPOST
  1

  9
$DIMAPOST
  1

  9
$DIMALT
 70
     0
  9
$DIMALTD
 70
     2
  9
$DIMALTF
 40
0.0393700787401575
  9
$DIMLFAC
 40
1.0
  9
$DIMTOFL
 70
     0
  9
$DIMTVP
 40
0.0
  9
$DIMTIX
 70
     0
  9
$DIMSOXD
 70
     0
  9
$DIMSAH
 70
     0
  9
$DIMBLK1
  1

  9
$DIMBLK2
  1

  9
$DIMSTYLE
  2
Standard
  9
$DIMCLRD
 70
     0
  9
$DIMCLRE
 70
     0
  9
$DIMCLRT
 70
     0
  9
$DIMTFAC
 40
0.65
  9
$DIMGAP
 40
0.09
  9
$DIMJUST
 70
     0
  9
$DIMSD1
 70
     0
  9
$DIMSD2
 70
     0
  9
$DIMTOLJ
 70
     0
  9
$DIMTZIN
 70
     0
  9
$DIMALTZ
 70
     0
  9
$DIMALTTZ
 70
     0
  9
$DIMUPT
 70
     0
  9
$DIMDEC
 70
     2
  9
$DIMTDEC
 70
     2
  9
$DIMALTU
 70
     2
  9
$DIMALTTD
 70
     2
  9
$DIMTXSTY
  7
Standard
  9
$DIMAUNIT
 70
     0
  9
$DIMADEC
 70
     2
  9
$DIMALTRND
 40
0.0
  9
$DIMAZIN
 70
     2
  9
$DIMDSEP
 70
    46
  9
$DIMATFIT
 70
     3
  9
$DIMFRAC
 70
     0
  9
$DIMLDRBLK
  1

  9
$DIMLUNIT
 70
     2
  9
$DIMLWD
 70
    -2
  9
$DIMLWE
 70
    -2
  9
$DIMTMOVE
 70
     0
  9
$LUNITS
 70
     2
  9
$LUPREC
 70
     4
  9
$SKETCHINC
 40
0.1
  9
$FILLETRAD
 40
0.5
  9
$AUNITS
 70
     0
  9
$AUPREC
 70
     0
  9
$MENU
  1
.
  9
$ELEVATION
 40
0.0
  9
$PELEVATION
 40
0.0
  9
$THICKNESS
 40
0.0
  9
$LIMCHECK
 70
     0
  9
$CHAMFERA
 40
0.0
  9
$CHAMFERB
 40
0.0
  9
$CHAMFERC
 40
0.0
  9
$CHAMFERD
 40
0.0
  9
$SKPOLY
 70
     0
  9
$TDCREATE
 40
2458968.649085718
  9
$TDUCREATE
 40
2458968.274085718
  9
$TDUPDATE
 40
2458968.649085891
  9
$TDUUPDATE
 40
2458968.274085891
  9
$TDINDWG
 40
0.0000000116
  9
$TDUSRTIMER
 40
0.0000000116
  9
$USRTIMER
 70
     1
  9
$ANGBASE
 50
0.0
  9
$ANGDIR
 70
     0
  9
$PDMODE
 70
     0
  9
$PDSIZE
 40
1.0
  9
$PLINEWID
 40
0.0
  9
$SPLFRAME
 70
     0
  9
$SPLINETYPE
 70
     6
  9
$SPLINESEGS
 70
     8
  9
$HANDSEED
  5
4E4
  9
$SURFTAB1
 70
     6
  9
$SURFTAB2
 70
     6
  9
$SURFTYPE
 70
     6
  9
$SURFU
 70
     6
  9
$SURFV
 70
     6
  9
$UCSBASE
  2

  9
$UCSNAME
  2

  9
$UCSORG
 10
0.0
 20
0.0
 30
0.0
  9
$UCSXDIR
 10
1.0
 20
0.0
 30
0.0
  9
$UCSYDIR
 10
0.0
 20
1.0
 30
0.0
  9
$UCSORTHOREF
  2

  9
$UCSORTHOVIEW
 70
     0
  9
$UCSORGTOP
 10
0.0
 20
0.0
 30
0.0
  9
$UCSORGBOTTOM
 10
0.0
 20
0.0
 30
0.0
  9
$UCSORGLEFT
 10
0.0
 20
0.0
 30
0.0
  9
$UCSORGRIGHT
 10
0.0
 20
0.0
 30
0.0
  9
$UCSORGFRONT
 10
0.0
 20
0.0
 30
0.0
  9
$UCSORGBACK
 10
0.0
 20
0.0
 30
0.0
  9
$PUCSBASE
  2

  9
$PUCSNAME
  2

  9
$PUCSORG
 10
0.0
 20
0.0
 30
0.0
  9
$PUCSXDIR
 10
1.0
 20
0.0
 30
0.0
  9
$PUCSYDIR
 10
0.0
 20
1.0
 30
0.0
  9
$PUCSORTHOREF
  2

  9
$PUCSORTHOVIEW
 70
     0
  9
$PUCSORGTOP
 10
0.0
 20
0.0
 30
0.0
  9
$PUCSORGBOTTOM
 10
0.0
 20
0.0
 30
0.0
  9
$PUCSORGLEFT
 10
0.0
 20
0.0
 30
0.0
  9
$PUCSORGRIGHT
 10
0.0
 20
0.0
 30
0.0
  9
$PUCSORGFRONT
 10
0.0
 20
0.0
 30
0.0
  9
$PUCSORGBACK
 10
0.0
 20
0.0
 30
0.0
  9
$USERI1
 70
     0
  9
$USERI2
 70
     0
  9
$USERI3
 70
     0
  9
$USERI4
 70
     0
  9
$USERI5
 70
     0
  9
$USERR1
 40
0.0
  9
$USERR2
 40
0.0
  9
$USERR3
 40
0.0
  9
$USERR4
 40
0.0
  9
$USERR5
 40
0.0
  9
$WORLDVIEW
 70
     1
  9
$SHADEDGE
 70
     3
  9
$SHADEDIF
 70
    70
  9
$TILEMODE
 70
     1
  9
$MAXACTVP
 70
    64
  9
$PINSBASE
 10
0.0
 20
0.0
 30
0.0
  9
$PLIMCHECK
 70
     0
  9
$PEXTMIN
 10
1.000000000000000E+20
 20
1.000000000000000E+20
 30
1.000000000000000E+20
  9
$PEXTMAX
 10
-1.000000000000000E+20
 20
-1.000000000000000E+20
 30
-1.000000000000000E+20
  9
$PLIMMIN
 10
0.0
 20
0.0
  9
$PLIMMAX
 10
12.0
 20
9.0
  9
$UNITMODE
 70
     0
  9
$VISRETAIN
 70
     0
  9
$PLINEGEN
 70
     1
  9
$PSLTSCALE
 70
     0
  9
$TREEDEPTH
 70
  3020
  9
$CMLSTYLE
  2
Standard
  9
$CMLJUST
 70
     0
  9
$CMLSCALE
 40
1.0
  9
$PROXYGRAPHICS
 70
     0
  9
$MEASUREMENT
 70
     1
  9
$CELWEIGHT
370
    -1
  9
$ENDCAPS
280
     0
  9
$JOINSTYLE
280
     0
  9
$LWDISPLAY
290
     1
  9
$INSUNITS
 70
     4
  9
$HYPERLINKBASE
  1

  9
$STYLESHEET
  1

  9
$XEDIT
290
     1
  9
$CEPSNTYPE
380
     0
  9
$PSTYLEMODE
290
     1
  9
$FINGERPRINTGUID
  2
{3c9bcc62-73e1-41f4-ae1a-3180ed61928d}
  9
$VERSIONGUID
  2
{FAEB1C32-E019-11D5-929B-00C0DF256EC4}
  9
$EXTNAMES
290
     1
  9
$PSVPSCALE
 40
0.0
  9
$OLESTARTUP
290
     0
  0
ENDSEC
  0
SECTION
  2
CLASSES
  0
CLASS
  1
ACDBDICTIONARYWDFLT
  2
AcDbDictionaryWithDefault
  3
ObjectDBX Classes
 90
        0
280
     0
281
     0
  0
CLASS
  1
VISUALSTYLE
  2
AcDbVisualStyle
  3
ObjectDBX Classes
 90
     4095
280
     0
281
     0
  0
CLASS
  1
MATERIAL
  2
AcDbMaterial
  3
ObjectDBX Classes
 90
     1153
280
     0
281
     0
  0
CLASS
  1
SCALE
  2
AcDbScale
  3
ObjectDBX Classes
 90
     1153
280
     0
281
     0
  0
CLASS
  1
TABLESTYLE
  2
AcDbTableStyle
  3
ObjectDBX Classes
 90
     4095
280
     0
281
     0
  0
CLASS
  1
MLEADERSTYLE
  2
AcDbMLeaderStyle
  3
ACDB_MLEADERSTYLE_CLASS
 90
     4095
280
     0
281
     0
  0
CLASS
  1
SUN
  2
AcDbSun
  3
SCENEOE
 90
     1153
280
     0
281
     0
  0
CLASS
  1
DICTIONARYVAR
  2
AcDbDictionaryVar
  3
ObjectDBX Classes
 90
        0
280
     0
281
     0
  0
CLASS
  1
ACDBPLACEHOLDER
  2
AcDbPlaceHolder
  3
ObjectDBX Classes
 90
        0
280
     0
281
     0
  0
CLASS
  1
LAYOUT
  2
AcDbLayout
  3
ObjectDBX Classes
 90
        0
280
     0
281
     0
  0
ENDSEC
  0
SECTION
  2
TABLES
  0
TABLE
  2
VPORT
  5
8
102
{ACAD_XDICTIONARY
360
4A7
102
}
330
0
100
AcDbSymbolTable
 70
     1
  0
VPORT
  5
29
330
8
100
AcDbSymbolTableRecord
100
AcDbViewportTableRecord
  2
*Active
 70
     0
 10
0.0
 20
0.0
 11
1.0
 21
1.0
 12
-0.0016330000000018
 22
3.14500000000001
 13
0.0
 23
0.0
 14
0.5
 24
0.5
 15
0.5
 25
0.5
 16
0.0
 26
0.0
 36
1.0
 17
0.0
 27
0.0
 37
0.0
 40
274.67325
 41
1.411131225920253
 42
50.0
 43
0.0
 44
0.0
 50
0.0
 51
0.0
 71
     0
 72
  1000
 73
     1
 74
     1
 75
     0
 76
     0
 77
     0
 78
     0
281
     0
 65
     1
110
0.0
120
0.0
130
0.0
111
1.0
121
0.0
131
0.0
112
0.0
122
1.0
132
0.0
 79
     0
146
0.0
  0
ENDTAB
  0
TABLE
  2
LTYPE
  5
5
330
0
100
AcDbSymbolTable
 70
    67
  0
LTYPE
  5
14
330
5
100
AcDbSymbolTableRecord
100
AcDbLinetypeTableRecord
  2
ByBlock
 70
     0
  3

 72
    65
 73
     0
 40
0.0
  0
LTYPE
  5
15
330
5
100
AcDbSymbolTableRecord
100
AcDbLinetypeTableRecord
  2
ByLayer
 70
     0
  3

 72
    65
 73
     0
 40
0.0
  0
LTYPE
  5
16
330
5
100
AcDbSymbolTableRecord
100
AcDbLinetypeTableRecord
  2
Continuous
 70
     0
  3
Solid line
 72
    65
 73
     0
 40
0.0
  0
LTYPE
  5
6F
330
5
100
AcDbSymbolTableRecord
100
AcDbLinetypeTableRecord
  2
HIDDENX2
 70
     0
  3
Hidden (2x) ____ ____ ____ ____ ____ ____ ____ 
 72
    65
 73
     2
 40
19.05
 49
12.7
 74
     0
 49
-6.35
 74
     0
  0
LTYPE
  5
70
330
5
100
AcDbSymbolTableRecord
100
AcDbLinetypeTableRecord
  2
HIDDEN
 70
     0
  3
Hidden __ __ __ __ __ __ __ __ __ __ __ __ __ __
 72
    65
 73
     2
 40
9.524999999999999
 49
6.35
 74
     0
 49
-3.175
 74
     0
  0
LTYPE
  5
71
330
5
100
AcDbSymbolTableRecord
100
AcDbLinetypeTableRecord
  2
HIDDEN2
 70
     0
  3
Hidden (.5x) _ _ _ _ _ _ _ _ _ _ _ _ _ _ _ _ _ 
 72
    65
 73
     2
 40
4.762499999999999
 49
3.175
 74
     0
 49
-1.5875
 74
     0
  0
LTYPE
  5
72
330
5
100
AcDbSymbolTableRecord
100
AcDbLinetypeTableRecord
  2
DASHED
 70
     0
  3
Dashed __ __ __ __ __ __ __ __ __ __ __ __ __ _
 72
    65
 73
     2
 40
19.05
 49
12.7
 74
     0
 49
-6.35
 74
     0
  0
LTYPE
  5
73
330
5
100
AcDbSymbolTableRecord
100
AcDbLinetypeTableRecord
  2
DASHED2
 70
     0
  3
Dashed (.5x) _ _ _ _ _ _ _ _ _ _ _ _ _ _ _ _ _ 
 72
    65
 73
     2
 40
9.524999999999999
 49
6.35
 74
     0
 49
-3.175
 74
     0
  0
LTYPE
  5
74
330
5
100
AcDbSymbolTableRecord
100
AcDbLinetypeTableRecord
  2
DASHEDX2
 70
     0
  3
Dashed (2x) ____  ____  ____  ____  ____  ___
 72
    65
 73
     2
 40
38.09999999999999
 49
25.4
 74
     0
 49
-12.7
 74
     0
  0
LTYPE
  5
75
330
5
100
AcDbSymbolTableRecord
100
AcDbLinetypeTableRecord
  2
DOTX2
 70
     0
  3
Dot (2x) .  .  .  .  .  .  .  .  .  .  .  .  .  .
 72
    65
 73
     2
 40
12.7
 49
0.0
 74
     0
 49
-12.7
 74
     0
  0
LTYPE
  5
76
330
5
100
AcDbSymbolTableRecord
100
AcDbLinetypeTableRecord
  2
DOT
 70
     0
  3
Dot . . . . . . . . . . . . . . . . . . . . . . . .
 72
    65
 73
     2
 40
6.35
 49
0.0
 74
     0
 49
-6.35
 74
     0
  0
LTYPE
  5
77
330
5
100
AcDbSymbolTableRecord
100
AcDbLinetypeTableRecord
  2
DOT2
 70
     0
  3
Dot (.5x) ........................................
 72
    65
 73
     2
 40
3.175
 49
0.0
 74
     0
 49
-3.175
 74
     0
  0
LTYPE
  5
78
330
5
100
AcDbSymbolTableRecord
100
AcDbLinetypeTableRecord
  2
CENTERX2
 70
     0
  3
Center (2x) ________  __  ________  __  _____
 72
    65
 73
     4
 40
101.6
 49
63.5
 74
     0
 49
-12.7
 74
     0
 49
12.7
 74
     0
 49
-12.7
 74
     0
  0
LTYPE
  5
79
330
5
100
AcDbSymbolTableRecord
100
AcDbLinetypeTableRecord
  2
CENTER
 70
     0
  3
Center ____ _ ____ _ ____ _ ____ _ ____ _ ____
 72
    65
 73
     4
 40
50.8
 49
31.75
 74
     0
 49
-6.35
 74
     0
 49
6.35
 74
     0
 49
-6.35
 74
     0
  0
LTYPE
  5
7A
330
5
100
AcDbSymbolTableRecord
100
AcDbLinetypeTableRecord
  2
CENTER2
 70
     0
  3
Center (.5x) ___ _ ___ _ ___ _ ___ _ ___ _ ___
 72
    65
 73
     4
 40
28.575
 49
19.05
 74
     0
 49
-3.175
 74
     0
 49
3.175
 74
     0
 49
-3.175
 74
     0
  0
LTYPE
  5
7B
330
5
100
AcDbSymbolTableRecord
100
AcDbLinetypeTableRecord
  2
DASHDOTX2
 70
     0
  3
Dash dot (2x) ____  .  ____  .  ____  .  ___
 72
    65
 73
     4
 40
50.8
 49
25.4
 74
     0
 49
-12.7
 74
     0
 49
0.0
 74
     0
 49
-12.7
 74
     0
  0
LTYPE
  5
7C
330
5
100
AcDbSymbolTableRecord
100
AcDbLinetypeTableRecord
  2
DASHDOT
 70
     0
  3
Dash dot __ . __ . __ . __ . __ . __ . __ . __
 72
    65
 73
     4
 40
25.4
 49
12.7
 74
     0
 49
-6.35
 74
     0
 49
0.0
 74
     0
 49
-6.35
 74
     0
  0
LTYPE
  5
7D
330
5
100
AcDbSymbolTableRecord
100
AcDbLinetypeTableRecord
  2
DASHDOT2
 70
     0
  3
Dash dot (.5x) _._._._._._._._._._._._._._._.
 72
    65
 73
     4
 40
12.7
 49
6.35
 74
     0
 49
-3.175
 74
     0
 49
0.0
 74
     0
 49
-3.175
 74
     0
  0
LTYPE
  5
7E
330
5
100
AcDbSymbolTableRecord
100
AcDbLinetypeTableRecord
  2
DIVIDEX2
 70
     0
  3
Divide (2x) ________  .  .  ________  .  .  _
 72
    65
 73
     6
 40
63.5
 49
25.4
 74
     0
 49
-12.7
 74
     0
 49
0.0
 74
     0
 49
-12.7
 74
     0
 49
0.0
 74
     0
 49
-12.7
 74
     0
  0
LTYPE
  5
7F
330
5
100
AcDbSymbolTableRecord
100
AcDbLinetypeTableRecord
  2
DIVIDE
 70
     0
  3
Divide ____ . . ____ . . ____ . . ____ . . ____
 72
    65
 73
     6
 40
31.75
 49
12.7
 74
     0
 49
-6.35
 74
     0
 49
0.0
 74
     0
 49
-6.35
 74
     0
 49
0.0
 74
     0
 49
-6.35
 74
     0
  0
LTYPE
  5
80
330
5
100
AcDbSymbolTableRecord
100
AcDbLinetypeTableRecord
  2
DIVIDE2
 70
     0
  3
Divide (.5x) __..__..__..__..__..__..__..__.._
 72
    65
 73
     6
 40
15.875
 49
6.35
 74
     0
 49
-3.175
 74
     0
 49
0.0
 74
     0
 49
-3.175
 74
     0
 49
0.0
 74
     0
 49
-3.175
 74
     0
  0
LTYPE
  5
81
330
5
100
AcDbSymbolTableRecord
100
AcDbLinetypeTableRecord
  2
BORDERX2
 70
     0
  3
Border (2x) ____  ____  .  ____  ____  .  ___
 72
    65
 73
     6
 40
88.89999999999999
 49
25.4
 74
     0
 49
-12.7
 74
     0
 49
25.4
 74
     0
 49
-12.7
 74
     0
 49
0.0
 74
     0
 49
-12.7
 74
     0
  0
LTYPE
  5
82
330
5
100
AcDbSymbolTableRecord
100
AcDbLinetypeTableRecord
  2
BORDER
 70
     0
  3
Border __ __ . __ __ . __ __ . __ __ . __ __ .
 72
    65
 73
     6
 40
44.45
 49
12.7
 74
     0
 49
-6.35
 74
     0
 49
12.7
 74
     0
 49
-6.35
 74
     0
 49
0.0
 74
     0
 49
-6.35
 74
     0
  0
LTYPE
  5
83
330
5
100
AcDbSymbolTableRecord
100
AcDbLinetypeTableRecord
  2
BORDER2
 70
     0
  3
Border (.5x) __.__.__.__.__.__.__.__.__.__.__.
 72
    65
 73
     6
 40
22.225
 49
6.35
 74
     0
 49
-3.175
 74
     0
 49
6.35
 74
     0
 49
-3.175
 74
     0
 49
0.0
 74
     0
 49
-3.175
 74
     0
  0
LTYPE
  5
84
330
5
100
AcDbSymbolTableRecord
100
AcDbLinetypeTableRecord
  2
PHANTOMX2
 70
     0
  3
Phantom (2x) ____________    ____    ____   _
 72
    65
 73
     6
 40
127.0
 49
63.5
 74
     0
 49
-12.7
 74
     0
 49
12.7
 74
     0
 49
-12.7
 74
     0
 49
12.7
 74
     0
 49
-12.7
 74
     0
  0
LTYPE
  5
85
330
5
100
AcDbSymbolTableRecord
100
AcDbLinetypeTableRecord
  2
PHANTOM
 70
     0
  3
Phantom ______  __  __  ______  __  __  ______ 
 72
    65
 73
     6
 40
63.5
 49
31.75
 74
     0
 49
-6.35
 74
     0
 49
6.35
 74
     0
 49
-6.35
 74
     0
 49
6.35
 74
     0
 49
-6.35
 74
     0
  0
LTYPE
  5
86
330
5
100
AcDbSymbolTableRecord
100
AcDbLinetypeTableRecord
  2
PHANTOM2
 70
     0
  3
Phantom (.5x) ___ _ _ ___ _ _ ___ _ _ ___ _ _
 72
    65
 73
     6
 40
31.75
 49
15.875
 74
     0
 49
-3.175
 74
     0
 49
3.175
 74
     0
 49
-3.175
 74
     0
 49
3.175
 74
     0
 49
-3.175
 74
     0
  0
LTYPE
  5
87
330
5
100
AcDbSymbolTableRecord
100
AcDbLinetypeTableRecord
  2
ACAD_ISO06W100
 70
     0
  3
ISO long-dash triple-dot ____ ... ____ ... ____
 72
    65
 73
     8
 40
36.0
 49
24.0
 74
     0
 49
-3.0
 74
     0
 49
0.0
 74
     0
 49
-3.0
 74
     0
 49
0.0
 74
     0
 49
-3.0
 74
     0
 49
0.0
 74
     0
 49
-3.0
 74
     0
  0
LTYPE
  5
88
330
5
100
AcDbSymbolTableRecord
100
AcDbLinetypeTableRecord
  2
ACAD_ISO13W100
 70
     0
  3
ISO double-dash double-dot __ __ . . __ __ . . _
 72
    65
 73
     8
 40
36.0
 49
12.0
 74
     0
 49
-3.0
 74
     0
 49
12.0
 74
     0
 49
-3.0
 74
     0
 49
0.0
 74
     0
 49
-3.0
 74
     0
 49
0.0
 74
     0
 49
-3.0
 74
     0
  0
LTYPE
  5
89
330
5
100
AcDbSymbolTableRecord
100
AcDbLinetypeTableRecord
  2
ACAD_ISO14W100
 70
     0
  3
ISO dash triple-dot __ . . . __ . . . __ . . . _
 72
    65
 73
     8
 40
24.0
 49
12.0
 74
     0
 49
-3.0
 74
     0
 49
0.0
 74
     0
 49
-3.0
 74
     0
 49
0.0
 74
     0
 49
-3.0
 74
     0
 49
0.0
 74
     0
 49
-3.0
 74
     0
  0
LTYPE
  5
8A
330
5
100
AcDbSymbolTableRecord
100
AcDbLinetypeTableRecord
  2
ACAD_ISO02W100
 70
     0
  3
ISO dash __ __ __ __ __ __ __ __ __ __ __ __ __
 72
    65
 73
     2
 40
15.0
 49
12.0
 74
     0
 49
-3.0
 74
     0
  0
LTYPE
  5
8B
330
5
100
AcDbSymbolTableRecord
100
AcDbLinetypeTableRecord
  2
ACAD_ISO03W100
 70
     0
  3
ISO dash space __    __    __    __    __    __
 72
    65
 73
     2
 40
30.0
 49
12.0
 74
     0
 49
-18.0
 74
     0
  0
LTYPE
  5
8C
330
5
100
AcDbSymbolTableRecord
100
AcDbLinetypeTableRecord
  2
ACAD_ISO04W100
 70
     0
  3
ISO long-dash dot ____ . ____ . ____ . ____ . _
 72
    65
 73
     4
 40
30.0
 49
24.0
 74
     0
 49
-3.0
 74
     0
 49
0.0
 74
     0
 49
-3.0
 74
     0
  0
LTYPE
  5
8D
330
5
100
AcDbSymbolTableRecord
100
AcDbLinetypeTableRecord
  2
ACAD_ISO05W100
 70
     0
  3
ISO long-dash double-dot ____ .. ____ .. ____ . 
 72
    65
 73
     6
 40
33.0
 49
24.0
 74
     0
 49
-3.0
 74
     0
 49
0.0
 74
     0
 49
-3.0
 74
     0
 49
0.0
 74
     0
 49
-3.0
 74
     0
  0
LTYPE
  5
8E
330
5
100
AcDbSymbolTableRecord
100
AcDbLinetypeTableRecord
  2
ACAD_ISO07W100
 70
     0
  3
ISO dot . . . . . . . . . . . . . . . . . . . . 
 72
    65
 73
     2
 40
3.0
 49
0.0
 74
     0
 49
-3.0
 74
     0
  0
LTYPE
  5
8F
330
5
100
AcDbSymbolTableRecord
100
AcDbLinetypeTableRecord
  2
ACAD_ISO08W100
 70
     0
  3
ISO long-dash short-dash ____ __ ____ __ ____ _
 72
    65
 73
     4
 40
36.0
 49
24.0
 74
     0
 49
-3.0
 74
     0
 49
6.0
 74
     0
 49
-3.0
 74
     0
  0
LTYPE
  5
90
330
5
100
AcDbSymbolTableRecord
100
AcDbLinetypeTableRecord
  2
ACAD_ISO09W100
 70
     0
  3
ISO long-dash double-short-dash ____ __ __ ____
 72
    65
 73
     6
 40
45.0
 49
24.0
 74
     0
 49
-3.0
 74
     0
 49
6.0
 74
     0
 49
-3.0
 74
     0
 49
6.0
 74
     0
 49
-3.0
 74
     0
  0
LTYPE
  5
91
330
5
100
AcDbSymbolTableRecord
100
AcDbLinetypeTableRecord
  2
ACAD_ISO10W100
 70
     0
  3
ISO dash dot __ . __ . __ . __ . __ . __ . __ . 
 72
    65
 73
     4
 40
18.0
 49
12.0
 74
     0
 49
-3.0
 74
     0
 49
0.0
 74
     0
 49
-3.0
 74
     0
  0
LTYPE
  5
92
330
5
100
AcDbSymbolTableRecord
100
AcDbLinetypeTableRecord
  2
ACAD_ISO11W100
 70
     0
  3
ISO double-dash dot __ __ . __ __ . __ __ . __ _
 72
    65
 73
     6
 40
33.0
 49
12.0
 74
     0
 49
-3.0
 74
     0
 49
12.0
 74
     0
 49
-3.0
 74
     0
 49
0.0
 74
     0
 49
-3.0
 74
     0
  0
LTYPE
  5
93
330
5
100
AcDbSymbolTableRecord
100
AcDbLinetypeTableRecord
  2
ACAD_ISO12W100
 70
     0
  3
ISO dash double-dot __ . . __ . . __ . . __ . . 
 72
    65
 73
     6
 40
21.0
 49
12.0
 74
     0
 49
-3.0
 74
     0
 49
0.0
 74
     0
 49
-3.0
 74
     0
 49
0.0
 74
     0
 49
-3.0
 74
     0
  0
LTYPE
  5
94
330
5
100
AcDbSymbolTableRecord
100
AcDbLinetypeTableRecord
  2
ACAD_ISO15W100
 70
     0
  3
ISO double-dash triple-dot __ __ . . . __ __ . .
 72
    65
 73
    10
 40
39.0
 49
12.0
 74
     0
 49
-3.0
 74
     0
 49
12.0
 74
     0
 49
-3.0
 74
     0
 49
0.0
 74
     0
 49
-3.0
 74
     0
 49
0.0
 74
     0
 49
-3.0
 74
     0
 49
0.0
 74
     0
 49
-3.0
 74
     0
  0
LTYPE
  5
95
330
5
100
AcDbSymbolTableRecord
100
AcDbLinetypeTableRecord
  2
JIS_02_0.7
 70
     0
  3
HIDDEN0.75 _ _ _ _ _ _ _ _ _ _ _ _ _ _ _ _ _ 
 72
    65
 73
     2
 40
1.35
 49
0.75
 74
     0
 49
-0.6
 74
     0
  0
LTYPE
  5
96
330
5
100
AcDbSymbolTableRecord
100
AcDbLinetypeTableRecord
  2
JIS_02_1.0
 70
     0
  3
HIDDEN01 _ _ _ _ _ _ _ _ _ _ _ _ _ _ _ _ _ 
 72
    65
 73
     2
 40
2.0
 49
1.0
 74
     0
 49
-1.0
 74
     0
  0
LTYPE
  5
97
330
5
100
AcDbSymbolTableRecord
100
AcDbLinetypeTableRecord
  2
JIS_02_1.2
 70
     0
  3
HIDDEN01.25  _ _ _ _ _ _ _ _ _ _ _ _ _ _ _ _ _ 
 72
    65
 73
     2
 40
2.5
 49
1.25
 74
     0
 49
-1.25
 74
     0
  0
LTYPE
  5
98
330
5
100
AcDbSymbolTableRecord
100
AcDbLinetypeTableRecord
  2
JIS_02_2.0
 70
     0
  3
HIDDEN02 __ __ __ __ __ __ __ __ __ __ __ 
 72
    65
 73
     2
 40
3.0
 49
2.0
 74
     0
 49
-1.0
 74
     0
  0
LTYPE
  5
99
330
5
100
AcDbSymbolTableRecord
100
AcDbLinetypeTableRecord
  2
JIS_02_4.0
 70
     0
  3
HIDDEN04 ____ ____ ____ ____ ____ ____ ____ 
 72
    65
 73
     2
 40
5.5
 49
4.0
 74
     0
 49
-1.5
 74
     0
  0
LTYPE
  5
9A
330
5
100
AcDbSymbolTableRecord
100
AcDbLinetypeTableRecord
  2
JIS_08_11
 70
     0
  3
1SASEN11 ___ _ ___ _ ___ _ ___ _ ___ _ ___
 72
    65
 73
     4
 40
12.8
 49
11.0
 74
     0
 49
-0.6
 74
     0
 49
0.6
 74
     0
 49
-0.6
 74
     0
  0
LTYPE
  5
9B
330
5
100
AcDbSymbolTableRecord
100
AcDbLinetypeTableRecord
  2
JIS_08_15
 70
     0
  3
1SASEN15 ____ _ ____ _ ____ _ ____ _ ____ 
 72
    65
 73
     4
 40
17.25
 49
15.0
 74
     0
 49
-0.75
 74
     0
 49
0.75
 74
     0
 49
-0.75
 74
     0
  0
LTYPE
  5
9C
330
5
100
AcDbSymbolTableRecord
100
AcDbLinetypeTableRecord
  2
JIS_08_25
 70
     0
  3
1SASEN25 ________  __  ________  __  _____
 72
    65
 73
     4
 40
28.0
 49
25.0
 74
     0
 49
-1.125
 74
     0
 49
0.75
 74
     0
 49
-1.125
 74
     0
  0
LTYPE
  5
9D
330
5
100
AcDbSymbolTableRecord
100
AcDbLinetypeTableRecord
  2
JIS_08_37
 70
     0
  3
1SASEN37 ________  __  ________  __  _____
 72
    65
 73
     4
 40
40.5
 49
37.5
 74
     0
 49
-1.125
 74
     0
 49
0.75
 74
     0
 49
-1.125
 74
     0
  0
LTYPE
  5
9E
330
5
100
AcDbSymbolTableRecord
100
AcDbLinetypeTableRecord
  2
JIS_08_50
 70
     0
  3
1SASEN50 _______________  __  ____________
 72
    65
 73
     4
 40
53.0
 49
50.0
 74
     0
 49
-1.125
 74
     0
 49
0.75
 74
     0
 49
-1.125
 74
     0
  0
LTYPE
  5
9F
330
5
100
AcDbSymbolTableRecord
100
AcDbLinetypeTableRecord
  2
JIS_09_08
 70
     0
  3
2SASEN8 __ _ _ __ _ _ __ _ _ __ _ _ __ _ _ 
 72
    65
 73
     6
 40
10.75
 49
8.0
 74
     0
 49
-0.55
 74
     0
 49
0.55
 74
     0
 49
-0.55
 74
     0
 49
0.55
 74
     0
 49
-0.55
 74
     0
  0
LTYPE
  5
A0
330
5
100
AcDbSymbolTableRecord
100
AcDbLinetypeTableRecord
  2
JIS_09_15
 70
     0
  3
2SASEN15 ___ _ _ ___ _ _ ___ _ _ ___ _ _ ___ 
 72
    65
 73
     6
 40
18.9
 49
15.0
 74
     0
 49
-0.9
 74
     0
 49
0.6
 74
     0
 49
-0.9
 74
     0
 49
0.6
 74
     0
 49
-0.9
 74
     0
  0
LTYPE
  5
A1
330
5
100
AcDbSymbolTableRecord
100
AcDbLinetypeTableRecord
  2
JIS_09_29
 70
     0
  3
2SASEN29 ______　__  __  ______　__  __  ___
 72
    65
 73
     6
 40
34.0
 49
29.0
 74
     0
 49
-1.2
 74
     0
 49
0.7
 74
     0
 49
-1.2
 74
     0
 49
0.7
 74
     0
 49
-1.2
 74
     0
  0
LTYPE
  5
A2
330
5
100
AcDbSymbolTableRecord
100
AcDbLinetypeTableRecord
  2
JIS_09_50
 70
     0
  3
2SASEN50 ____________　__  __  _____________
 72
    65
 73
     6
 40
55.0
 49
50.0
 74
     0
 49
-1.2
 74
     0
 49
0.7
 74
     0
 49
-1.2
 74
     0
 49
0.7
 74
     0
 49
-1.2
 74
     0
  0
LTYPE
  5
A3
330
5
100
AcDbSymbolTableRecord
100
AcDbLinetypeTableRecord
  2
SXF_破線
 70
     0
  3
02 dashed -- -- -- -- -- --
 72
    65
 73
     2
 40
7.5
 49
6.0
 74
     0
 49
-1.5
 74
     0
  0
LTYPE
  5
A4
330
5
100
AcDbSymbolTableRecord
100
AcDbLinetypeTableRecord
  2
SXF_跳び破線
 70
     0
  3
03 dashed_spaced --  --  --  --
 72
    65
 73
     2
 40
12.0
 49
6.0
 74
     0
 49
-6.0
 74
     0
  0
LTYPE
  5
A5
330
5
100
AcDbSymbolTableRecord
100
AcDbLinetypeTableRecord
  2
SXF_一点長鎖線
 70
     0
  3
04 long_dashed_dotted ---- . ---- . ----
 72
    65
 73
     4
 40
15.25
 49
12.0
 74
     0
 49
-1.5
 74
     0
 49
0.25
 74
     0
 49
-1.5
 74
     0
  0
LTYPE
  5
A6
330
5
100
AcDbSymbolTableRecord
100
AcDbLinetypeTableRecord
  2
SXF_二点長鎖線
 70
     0
  3
05 long_dashed_double-dotted ---- . . ---- 
 72
    65
 73
     6
 40
17.0
 49
12.0
 74
     0
 49
-1.5
 74
     0
 49
0.25
 74
     0
 49
-1.5
 74
     0
 49
0.25
 74
     0
 49
-1.5
 74
     0
  0
LTYPE
  5
A7
330
5
100
AcDbSymbolTableRecord
100
AcDbLinetypeTableRecord
  2
SXF_三点長鎖線
 70
     0
  3
06 long_dashed_triplicate-dotted ---- ... ---- 
 72
    65
 73
     8
 40
18.75
 49
12.0
 74
     0
 49
-1.5
 74
     0
 49
0.25
 74
     0
 49
-1.5
 74
     0
 49
0.25
 74
     0
 49
-1.5
 74
     0
 49
0.25
 74
     0
 49
-1.5
 74
     0
  0
LTYPE
  5
A8
330
5
100
AcDbSymbolTableRecord
100
AcDbLinetypeTableRecord
  2
SXF_点線
 70
     0
  3
07 dotted . . . . . . . . . . . . 
 72
    65
 73
     2
 40
1.75
 49
0.25
 74
     0
 49
-1.5
 74
     0
  0
LTYPE
  5
A9
330
5
100
AcDbSymbolTableRecord
100
AcDbLinetypeTableRecord
  2
SXF_一点鎖線
 70
     0
  3
08 chain ---- - --- - --- - ---
 72
    65
 73
     4
 40
18.5
 49
12.0
 74
     0
 49
-1.5
 74
     0
 49
3.5
 74
     0
 49
-1.5
 74
     0
  0
LTYPE
  5
AA
330
5
100
AcDbSymbolTableRecord
100
AcDbLinetypeTableRecord
  2
SXF_二点鎖線
 70
     0
  3
09 chain_double_dash ---- - - ---- - - ----
 72
    65
 73
     6
 40
23.5
 49
12.0
 74
     0
 49
-1.5
 74
     0
 49
3.5
 74
     0
 49
-1.5
 74
     0
 49
3.5
 74
     0
 49
-1.5
 74
     0
  0
LTYPE
  5
AB
330
5
100
AcDbSymbolTableRecord
100
AcDbLinetypeTableRecord
  2
SXF_一点短鎖線
 70
     0
  3
10 dashed_dotted -- . -- . -- . --
 72
    65
 73
     4
 40
9.25
 49
6.0
 74
     0
 49
-1.5
 74
     0
 49
0.25
 74
     0
 49
-1.5
 74
     0
  0
LTYPE
  5
AC
330
5
100
AcDbSymbolTableRecord
100
AcDbLinetypeTableRecord
  2
SXF_一点二短鎖線
 70
     0
  3
11 double-dashed_dotted -- -- . -- --
 72
    65
 73
     6
 40
16.75
 49
6.0
 74
     0
 49
-1.5
 74
     0
 49
6.0
 74
     0
 49
-1.5
 74
     0
 49
0.25
 74
     0
 49
-1.5
 74
     0
  0
LTYPE
  5
AD
330
5
100
AcDbSymbolTableRecord
100
AcDbLinetypeTableRecord
  2
SXF_二点短鎖線
 70
     0
  3
12 dashed_double_dotted -- . . -- . . --
 72
    65
 73
     6
 40
11.0
 49
6.0
 74
     0
 49
-1.5
 74
     0
 49
0.25
 74
     0
 49
-1.5
 74
     0
 49
0.25
 74
     0
 49
-1.5
 74
     0
  0
LTYPE
  5
AE
330
5
100
AcDbSymbolTableRecord
100
AcDbLinetypeTableRecord
  2
SXF_二点二短鎖線
 70
     0
  3
13 double-dashed_double-dotted -- -- . . -- --
 72
    65
 73
     8
 40
18.5
 49
6.0
 74
     0
 49
-1.5
 74
     0
 49
6.0
 74
     0
 49
-1.5
 74
     0
 49
0.25
 74
     0
 49
-1.5
 74
     0
 49
0.25
 74
     0
 49
-1.5
 74
     0
  0
LTYPE
  5
AF
330
5
100
AcDbSymbolTableRecord
100
AcDbLinetypeTableRecord
  2
SXF_三点短鎖線
 70
     0
  3
14 dashed triplicate-dotted -- . . . -- . . . --
 72
    65
 73
     8
 40
12.75
 49
6.0
 74
     0
 49
-1.5
 74
     0
 49
0.25
 74
     0
 49
-1.5
 74
     0
 49
0.25
 74
     0
 49
-1.5
 74
     0
 49
0.25
 74
     0
 49
-1.5
 74
     0
  0
LTYPE
  5
B0
330
5
100
AcDbSymbolTableRecord
100
AcDbLinetypeTableRecord
  2
SXF_三点二短鎖線
 70
     0
  3
15 double-dashed triplicate-dotted -- -- . . . -- -- 
 72
    65
 73
    10
 40
20.25
 49
6.0
 74
     0
 49
-1.5
 74
     0
 49
6.0
 74
     0
 49
-1.5
 74
     0
 49
0.25
 74
     0
 49
-1.5
 74
     0
 49
0.25
 74
     0
 49
-1.5
 74
     0
 49
0.25
 74
     0
 49
-1.5
 74
     0
  0
ENDTAB
  0
TABLE
  2
LAYER
  5
2
330
0
100
AcDbSymbolTable
 70
     5
  0
LAYER
  5
10
330
2
100
AcDbSymbolTableRecord
100
AcDbLayerTableRecord
  2
0
 70
     0
 62
     7
  6
Continuous
370
    -3
390
F
  0
LAYER
  5
B1
330
2
100
AcDbSymbolTableRecord
100
AcDbLayerTableRecord
  2
Layer0004
 70
     0
 62
     7
  6
Continuous
370
    -3
390
F
  0
LAYER
  5
B2
330
2
100
AcDbSymbolTableRecord
100
AcDbLayerTableRecord
  2
Layer0008
 70
     0
 62
     7
  6
Continuous
370
    -3
390
F
  0
LAYER
  5
B3
330
2
100
AcDbSymbolTableRecord
100
AcDbLayerTableRecord
  2
Layer0010
 70
     0
 62
     7
  6
Continuous
370
    -3
390
F
  0
LAYER
  5
B4
330
2
100
AcDbSymbolTableRecord
100
AcDbLayerTableRecord
  2
ZUWAKU
 70
     0
 62
     7
  6
Continuous
370
    -3
390
F
  0
ENDTAB
  0
TABLE
  2
STYLE
  5
3
330
0
100
AcDbSymbolTable
 70
     2
  0
STYLE
  5
11
330
3
100
AcDbSymbolTableRecord
100
AcDbTextStyleTableRecord
  2
Standard
 70
     0
 40
0.0
 41
1.0
 50
0.0
 71
     0
 42
0.2
  3
txt.shx
  4
bigfont.shx
  0
STYLE
  5
465
330
3
100
AcDbSymbolTableRecord
100
AcDbTextStyleTableRecord
  2
dcStyle0
 70
     0
 40
0.0
 41
1.0
 50
0.0
 71
     0
 42
0.2
  3
txt.shx
  4
bigfont
  0
ENDTAB
  0
TABLE
  2
VIEW
  5
6
330
0
100
AcDbSymbolTable
 70
     0
  0
ENDTAB
  0
TABLE
  2
UCS
  5
7
330
0
100
AcDbSymbolTable
 70
     0
  0
ENDTAB
  0
TABLE
  2
APPID
  5
9
330
0
100
AcDbSymbolTable
 70
     3
  0
APPID
  5
12
330
9
100
AcDbSymbolTableRecord
100
AcDbRegAppTableRecord
  2
ACAD
 70
     0
  0
APPID
  5
6E
330
9
100
AcDbSymbolTableRecord
100
AcDbRegAppTableRecord
  2
DaFusionOut
 70
     0
  0
APPID
  5
4E1
330
9
100
AcDbSymbolTableRecord
100
AcDbRegAppTableRecord
  2
ACAD_MLEADERVER
 70
     0
  0
ENDTAB
  0
TABLE
  2
DIMSTYLE
  5
A
330
0
100
AcDbSymbolTable
 70
     1
100
AcDbDimStyleTable
  0
DIMSTYLE
105
27
330
A
100
AcDbSymbolTableRecord
100
AcDbDimStyleTableRecord
  2
Standard
 70
     0
178
     0
340
11
  0
ENDTAB
  0
TABLE
  2
BLOCK_RECORD
  5
1
330
0
100
AcDbSymbolTable
 70
     6
  0
BLOCK_RECORD
  5
1F
330
1
100
AcDbSymbolTableRecord
100
AcDbBlockTableRecord
  2
*Model_Space
340
22
  0
BLOCK_RECORD
  5
1B
330
1
100
AcDbSymbolTableRecord
100
AcDbBlockTableRecord
  2
*Paper_Space
340
1E
  0
BLOCK_RECORD
  5
23
330
1
100
AcDbSymbolTableRecord
100
AcDbBlockTableRecord
  2
*Paper_Space0
340
26
  0
BLOCK_RECORD
  5
B6
330
1
100
AcDbSymbolTableRecord
100
AcDbBlockTableRecord
  2
DC_GROUP_HFB-3M_1
340
0
102
{BLKREFS
331
46F
102
}
  0
BLOCK_RECORD
  5
B9
330
1
100
AcDbSymbolTableRecord
100
AcDbBlockTableRecord
  2
DC_GROUP_HFB-3M_2
340
0
102
{BLKREFS
331
470
102
}
  0
BLOCK_RECORD
  5
BC
330
1
100
AcDbSymbolTableRecord
100
AcDbBlockTableRecord
  2
DC_GROUP_HFB-3M_3
340
0
102
{BLKREFS
331
471
102
}
  0
BLOCK_RECORD
  5
BF
330
1
100
AcDbSymbolTableRecord
100
AcDbBlockTableRecord
  2
DC_GROUP_HFB-3M_4
340
0
102
{BLKREFS
331
472
102
}
  0
BLOCK_RECORD
  5
C2
330
1
100
AcDbSymbolTableRecord
100
AcDbBlockTableRecord
  2
DC_GROUP_HFB-3M_5
340
0
102
{BLKREFS
331
49C
102
}
  0
ENDTAB
  0
ENDSEC
  0
SECTION
  2
BLOCKS
  0
BLOCK
  5
20
330
1F
100
AcDbEntity
  8
0
100
AcDbBlockBegin
  2
*Model_Space
 70
     0
 10
0.0
 20
0.0
 30
0.0
  3
*Model_Space
  1

  0
ENDBLK
  5
21
330
1F
100
AcDbEntity
  8
0
100
AcDbBlockEnd
  0
BLOCK
  5
1C
330
1B
100
AcDbEntity
 67
     1
  8
0
100
AcDbBlockBegin
  2
*Paper_Space
 70
     0
 10
0.0
 20
0.0
 30
0.0
  3
*Paper_Space
  1

  0
ENDBLK
  5
1D
330
1B
100
AcDbEntity
 67
     1
  8
0
100
AcDbBlockEnd
  0
BLOCK
  5
24
330
23
100
AcDbEntity
  8
0
100
AcDbBlockBegin
  2
*Paper_Space0
 70
     0
 10
0.0
 20
0.0
 30
0.0
  3
*Paper_Space0
  1

  0
ENDBLK
  5
25
330
23
100
AcDbEntity
  8
0
100
AcDbBlockEnd
  0
BLOCK
  5
B7
330
B6
100
AcDbEntity
  8
0
100
AcDbBlockBegin
  2
DC_GROUP_HFB-3M_1
 70
     0
 10
0.0
 20
0.0
 30
0.0
  3
DC_GROUP_HFB-3M_1
  1

  0
LINE
  5
C5
330
B6
100
AcDbEntity
  8
ZUWAKU
  6
Continuous
 62
     7
370
    13
100
AcDbLine
 10
171.808631
 20
130.106933
 30
0.0
 11
171.870184
 21
130.168486
 31
0.0
  0
LINE
  5
C6
330
B6
100
AcDbEntity
  8
ZUWAKU
  6
Continuous
 62
     7
370
    13
100
AcDbLine
 10
171.56914
 20
130.008863
 30
0.0
 11
171.968254
 21
130.407977
 31
0.0
  0
LINE
  5
C7
330
B6
100
AcDbEntity
  8
ZUWAKU
  6
Continuous
 62
     7
370
    13
100
AcDbLine
 10
171.420106
 20
130.00125
 30
0.0
 11
171.975867
 21
130.557011
 31
0.0
  0
LINE
  5
C8
330
B6
100
AcDbEntity
  8
ZUWAKU
  6
Continuous
 62
     7
370
    13
100
AcDbLine
 10
171.278684
 20
130.00125
 30
0.0
 11
171.975867
 21
130.698433
 31
0.0
  0
LINE
  5
C9
330
B6
100
AcDbEntity
  8
ZUWAKU
  6
Continuous
 62
     7
370
    13
100
AcDbLine
 10
171.137263
 20
130.00125
 30
0.0
 11
171.975867
 21
130.839854
 31
0.0
  0
LINE
  5
CA
330
B6
100
AcDbEntity
  8
ZUWAKU
  6
Continuous
 62
     7
370
    13
100
AcDbLine
 10
170.995842
 20
130.00125
 30
0.0
 11
171.975867
 21
130.981275
 31
0.0
  0
LINE
  5
CB
330
B6
100
AcDbEntity
  8
ZUWAKU
  6
Continuous
 62
     7
370
    13
100
AcDbLine
 10
170.85442
 20
130.00125
 30
0.0
 11
171.975867
 21
131.122697
 31
0.0
  0
LINE
  5
CC
330
B6
100
AcDbEntity
  8
ZUWAKU
  6
Continuous
 62
     7
370
    13
100
AcDbLine
 10
170.712999
 20
130.00125
 30
0.0
 11
171.975867
 21
131.264118
 31
0.0
  0
LINE
  5
CD
330
B6
100
AcDbEntity
  8
ZUWAKU
  6
Continuous
 62
     7
370
    13
100
AcDbLine
 10
170.571578
 20
130.00125
 30
0.0
 11
171.975867
 21
131.405539
 31
0.0
  0
LINE
  5
CE
330
B6
100
AcDbEntity
  8
ZUWAKU
  6
Continuous
 62
     7
370
    13
100
AcDbLine
 10
170.430156
 20
130.00125
 30
0.0
 11
171.975867
 21
131.546961
 31
0.0
  0
LINE
  5
CF
330
B6
100
AcDbEntity
  8
ZUWAKU
  6
Continuous
 62
     7
370
    13
100
AcDbLine
 10
170.288735
 20
130.00125
 30
0.0
 11
171.975867
 21
131.688382
 31
0.0
  0
LINE
  5
D0
330
B6
100
AcDbEntity
  8
ZUWAKU
  6
Continuous
 62
     7
370
    13
100
AcDbLine
 10
170.147314
 20
130.00125
 30
0.0
 11
171.975867
 21
131.829803
 31
0.0
  0
LINE
  5
D1
330
B6
100
AcDbEntity
  8
ZUWAKU
  6
Continuous
 62
     7
370
    13
100
AcDbLine
 10
170.005892
 20
130.00125
 30
0.0
 11
171.975867
 21
131.971225
 31
0.0
  0
LINE
  5
D2
330
B6
100
AcDbEntity
  8
ZUWAKU
  6
Continuous
 62
     7
370
    13
100
AcDbLine
 10
169.864471
 20
130.00125
 30
0.0
 11
171.975867
 21
132.112646
 31
0.0
  0
LINE
  5
D3
330
B6
100
AcDbEntity
  8
ZUWAKU
  6
Continuous
 62
     7
370
    13
100
AcDbLine
 10
169.723049
 20
130.00125
 30
0.0
 11
171.975867
 21
132.254068
 31
0.0
  0
LINE
  5
D4
330
B6
100
AcDbEntity
  8
ZUWAKU
  6
Continuous
 62
     7
370
    13
100
AcDbLine
 10
169.581628
 20
130.00125
 30
0.0
 11
171.975867
 21
132.395489
 31
0.0
  0
LINE
  5
D5
330
B6
100
AcDbEntity
  8
ZUWAKU
  6
Continuous
 62
     7
370
    13
100
AcDbLine
 10
169.440207
 20
130.00125
 30
0.0
 11
171.975867
 21
132.53691
 31
0.0
  0
LINE
  5
D6
330
B6
100
AcDbEntity
  8
ZUWAKU
  6
Continuous
 62
     7
370
    13
100
AcDbLine
 10
169.298785
 20
130.00125
 30
0.0
 11
171.975867
 21
132.678332
 31
0.0
  0
LINE
  5
D7
330
B6
100
AcDbEntity
  8
ZUWAKU
  6
Continuous
 62
     7
370
    13
100
AcDbLine
 10
169.163545
 20
130.007431
 30
0.0
 11
171.975867
 21
132.819753
 31
0.0
  0
LINE
  5
D8
330
B6
100
AcDbEntity
  8
ZUWAKU
  6
Continuous
 62
     7
370
    13
100
AcDbLine
 10
169.045587
 20
130.030894
 30
0.0
 11
171.975867
 21
132.961174
 31
0.0
  0
LINE
  5
D9
330
B6
100
AcDbEntity
  8
ZUWAKU
  6
Continuous
 62
     7
370
    13
100
AcDbLine
 10
168.954829
 20
130.081558
 30
0.0
 11
171.975867
 21
133.102596
 31
0.0
  0
LINE
  5
DA
330
B6
100
AcDbEntity
  8
ZUWAKU
  6
Continuous
 62
     7
370
    13
100
AcDbLine
 10
168.873339
 20
130.141489
 30
0.0
 11
171.975867
 21
133.244017
 31
0.0
  0
LINE
  5
DB
330
B6
100
AcDbEntity
  8
ZUWAKU
  6
Continuous
 62
     7
370
    13
100
AcDbLine
 10
168.816693
 20
130.226265
 30
0.0
 11
171.975867
 21
133.385438
 31
0.0
  0
LINE
  5
DC
330
B6
100
AcDbEntity
  8
ZUWAKU
  6
Continuous
 62
     7
370
    13
100
AcDbLine
 10
168.77378
 20
130.324773
 30
0.0
 11
171.975867
 21
133.52686
 31
0.0
  0
LINE
  5
DD
330
B6
100
AcDbEntity
  8
ZUWAKU
  6
Continuous
 62
     7
370
    13
100
AcDbLine
 10
168.750317
 20
130.442731
 30
0.0
 11
171.975867
 21
133.668281
 31
0.0
  0
LINE
  5
DE
330
B6
100
AcDbEntity
  8
ZUWAKU
  6
Continuous
 62
     7
370
    13
100
AcDbLine
 10
168.749617
 20
130.583452
 30
0.0
 11
171.975867
 21
133.809702
 31
0.0
  0
LINE
  5
DF
330
B6
100
AcDbEntity
  8
ZUWAKU
  6
Continuous
 62
     7
370
    13
100
AcDbLine
 10
168.749617
 20
130.724874
 30
0.0
 11
171.975867
 21
133.951124
 31
0.0
  0
LINE
  5
E0
330
B6
100
AcDbEntity
  8
ZUWAKU
  6
Continuous
 62
     7
370
    13
100
AcDbLine
 10
168.749617
 20
130.866295
 30
0.0
 11
171.975867
 21
134.092545
 31
0.0
  0
LINE
  5
E1
330
B6
100
AcDbEntity
  8
ZUWAKU
  6
Continuous
 62
     7
370
    13
100
AcDbLine
 10
167.769479
 20
130.027578
 30
0.0
 11
168.055789
 21
130.313888
 31
0.0
  0
LINE
  5
E2
330
B6
100
AcDbEntity
  8
ZUWAKU
  6
Continuous
 62
     7
370
    13
100
AcDbLine
 10
168.749617
 20
131.007717
 30
0.0
 11
171.975867
 21
134.233967
 31
0.0
  0
LINE
  5
E3
330
B6
100
AcDbEntity
  8
ZUWAKU
  6
Continuous
 62
     7
370
    13
100
AcDbLine
 10
167.601729
 20
130.00125
 30
0.0
 11
168.082117
 21
130.481638
 31
0.0
  0
LINE
  5
E4
330
B6
100
AcDbEntity
  8
ZUWAKU
  6
Continuous
 62
     7
370
    13
100
AcDbLine
 10
168.749617
 20
131.149138
 30
0.0
 11
171.975867
 21
134.375388
 31
0.0
  0
LINE
  5
E5
330
B6
100
AcDbEntity
  8
ZUWAKU
  6
Continuous
 62
     7
370
    13
100
AcDbLine
 10
167.460308
 20
130.00125
 30
0.0
 11
168.082117
 21
130.623059
 31
0.0
  0
LINE
  5
E6
330
B6
100
AcDbEntity
  8
ZUWAKU
  6
Continuous
 62
     7
370
    13
100
AcDbLine
 10
168.749617
 20
131.290559
 30
0.0
 11
171.975867
 21
134.516809
 31
0.0
  0
LINE
  5
E7
330
B6
100
AcDbEntity
  8
ZUWAKU
  6
Continuous
 62
     7
370
    13
100
AcDbLine
 10
167.318886
 20
130.00125
 30
0.0
 11
168.082117
 21
130.764481
 31
0.0
  0
LINE
  5
E8
330
B6
100
AcDbEntity
  8
ZUWAKU
  6
Continuous
 62
     7
370
    13
100
AcDbLine
 10
168.729387
 20
131.41175
 30
0.0
 11
171.975867
 21
134.658231
 31
0.0
  0
LINE
  5
E9
330
B6
100
AcDbEntity
  8
ZUWAKU
  6
Continuous
 62
     7
370
    13
100
AcDbLine
 10
167.177465
 20
130.00125
 30
0.0
 11
168.082117
 21
130.905902
 31
0.0
  0
LINE
  5
EA
330
B6
100
AcDbEntity
  8
ZUWAKU
  6
Continuous
 62
     7
370
    13
100
AcDbLine
 10
168.692122
 20
131.515906
 30
0.0
 11
171.975867
 21
134.799652
 31
0.0
  0
LINE
  5
EB
330
B6
100
AcDbEntity
  8
ZUWAKU
  6
Continuous
 62
     7
370
    13
100
AcDbLine
 10
167.04348
 20
130.008687
 30
0.0
 11
168.082117
 21
131.047323
 31
0.0
  0
LINE
  5
EC
330
B6
100
AcDbEntity
  8
ZUWAKU
  6
Continuous
 62
     7
370
    13
100
AcDbLine
 10
168.621411
 20
131.586617
 30
0.0
 11
171.975867
 21
134.941073
 31
0.0
  0
LINE
  5
ED
330
B6
100
AcDbEntity
  8
ZUWAKU
  6
Continuous
 62
     7
370
    13
100
AcDbLine
 10
166.925522
 20
130.03215
 30
0.0
 11
168.082117
 21
131.188745
 31
0.0
  0
LINE
  5
EE
330
B6
100
AcDbEntity
  8
ZUWAKU
  6
Continuous
 62
     7
370
    13
100
AcDbLine
 10
168.532201
 20
131.638828
 30
0.0
 11
171.975867
 21
135.082495
 31
0.0
  0
LINE
  5
EF
330
B6
100
AcDbEntity
  8
ZUWAKU
  6
Continuous
 62
     7
370
    13
100
AcDbLine
 10
166.836541
 20
130.08459
 30
0.0
 11
168.082117
 21
131.330166
 31
0.0
  0
LINE
  5
F0
330
B6
100
AcDbEntity
  8
ZUWAKU
  6
Continuous
 62
     7
370
    13
100
AcDbLine
 10
168.420665
 20
131.668714
 30
0.0
 11
171.975867
 21
135.223916
 31
0.0
  0
LINE
  5
F1
330
B6
100
AcDbEntity
  8
ZUWAKU
  6
Continuous
 62
     7
370
    13
100
AcDbLine
 10
166.756556
 20
130.146027
 30
0.0
 11
171.975867
 21
135.365337
 31
0.0
  0
LINE
  5
F2
330
B6
100
AcDbEntity
  8
ZUWAKU
  6
Continuous
 62
     7
370
    13
100
AcDbLine
 10
166.699911
 20
130.230803
 30
0.0
 11
171.975867
 21
135.506759
 31
0.0
  0
LINE
  5
F3
330
B6
100
AcDbEntity
  8
ZUWAKU
  6
Continuous
 62
     7
370
    13
100
AcDbLine
 10
166.658774
 20
130.331087
 30
0.0
 11
171.975867
 21
135.64818
 31
0.0
  0
LINE
  5
F4
330
B6
100
AcDbEntity
  8
ZUWAKU
  6
Continuous
 62
     7
370
    13
100
AcDbLine
 10
166.635867
 20
130.449601
 30
0.0
 11
171.975867
 21
135.789601
 31
0.0
  0
LINE
  5
F5
330
B6
100
AcDbEntity
  8
ZUWAKU
  6
Continuous
 62
     7
370
    13
100
AcDbLine
 10
166.635867
 20
130.591023
 30
0.0
 11
171.975867
 21
135.931023
 31
0.0
  0
LINE
  5
F6
330
B6
100
AcDbEntity
  8
ZUWAKU
  6
Continuous
 62
     7
370
    13
100
AcDbLine
 10
166.635867
 20
130.732444
 30
0.0
 11
171.975867
 21
136.072444
 31
0.0
  0
LINE
  5
F7
330
B6
100
AcDbEntity
  8
ZUWAKU
  6
Continuous
 62
     7
370
    13
100
AcDbLine
 10
166.635867
 20
130.873865
 30
0.0
 11
171.975867
 21
136.213865
 31
0.0
  0
LINE
  5
F8
330
B6
100
AcDbEntity
  8
ZUWAKU
  6
Continuous
 62
     7
370
    13
100
AcDbLine
 10
166.635867
 20
131.015287
 30
0.0
 11
171.975867
 21
136.355287
 31
0.0
  0
LINE
  5
F9
330
B6
100
AcDbEntity
  8
ZUWAKU
  6
Continuous
 62
     7
370
    13
100
AcDbLine
 10
166.635867
 20
131.156708
 30
0.0
 11
171.975867
 21
136.496708
 31
0.0
  0
LINE
  5
FA
330
B6
100
AcDbEntity
  8
ZUWAKU
  6
Continuous
 62
     7
370
    13
100
AcDbLine
 10
166.635867
 20
131.29813
 30
0.0
 11
171.975867
 21
136.63813
 31
0.0
  0
LINE
  5
FB
330
B6
100
AcDbEntity
  8
ZUWAKU
  6
Continuous
 62
     7
370
    13
100
AcDbLine
 10
166.635867
 20
131.439551
 30
0.0
 11
171.975867
 21
136.779551
 31
0.0
  0
LINE
  5
FC
330
B6
100
AcDbEntity
  8
ZUWAKU
  6
Continuous
 62
     7
370
    13
100
AcDbLine
 10
166.635867
 20
131.580972
 30
0.0
 11
171.975867
 21
136.920972
 31
0.0
  0
LINE
  5
FD
330
B6
100
AcDbEntity
  8
ZUWAKU
  6
Continuous
 62
     7
370
    13
100
AcDbLine
 10
166.635867
 20
131.722394
 30
0.0
 11
171.975867
 21
137.062394
 31
0.0
  0
LINE
  5
FE
330
B6
100
AcDbEntity
  8
ZUWAKU
  6
Continuous
 62
     7
370
    13
100
AcDbLine
 10
166.635867
 20
131.863815
 30
0.0
 11
171.975867
 21
137.203815
 31
0.0
  0
LINE
  5
FF
330
B6
100
AcDbEntity
  8
ZUWAKU
  6
Continuous
 62
     7
370
    13
100
AcDbLine
 10
166.635867
 20
132.005236
 30
0.0
 11
171.97562
 21
137.34499
 31
0.0
  0
LINE
  5
100
330
B6
100
AcDbEntity
  8
ZUWAKU
  6
Continuous
 62
     7
370
    13
100
AcDbLine
 10
166.635867
 20
132.146658
 30
0.0
 11
171.952157
 21
137.462948
 31
0.0
  0
LINE
  5
101
330
B6
100
AcDbEntity
  8
ZUWAKU
  6
Continuous
 62
     7
370
    13
100
AcDbLine
 10
166.635867
 20
132.288079
 30
0.0
 11
171.909885
 21
137.562097
 31
0.0
  0
LINE
  5
102
330
B6
100
AcDbEntity
  8
ZUWAKU
  6
Continuous
 62
     7
370
    13
100
AcDbLine
 10
166.635867
 20
132.4295
 30
0.0
 11
171.85324
 21
137.646873
 31
0.0
  0
LINE
  5
103
330
B6
100
AcDbEntity
  8
ZUWAKU
  6
Continuous
 62
     7
370
    13
100
AcDbLine
 10
166.635867
 20
132.570922
 30
0.0
 11
171.772293
 21
137.707348
 31
0.0
  0
LINE
  5
104
330
B6
100
AcDbEntity
  8
ZUWAKU
  6
Continuous
 62
     7
370
    13
100
AcDbLine
 10
166.635867
 20
132.712343
 30
0.0
 11
171.682177
 21
137.758653
 31
0.0
  0
LINE
  5
105
330
B6
100
AcDbEntity
  8
ZUWAKU
  6
Continuous
 62
     7
370
    13
100
AcDbLine
 10
166.635867
 20
132.853764
 30
0.0
 11
171.564218
 21
137.782116
 31
0.0
  0
LINE
  5
106
330
B6
100
AcDbEntity
  8
ZUWAKU
  6
Continuous
 62
     7
370
    13
100
AcDbLine
 10
166.635867
 20
132.995186
 30
0.0
 11
171.429431
 21
137.78875
 31
0.0
  0
LINE
  5
107
330
B6
100
AcDbEntity
  8
ZUWAKU
  6
Continuous
 62
     7
370
    13
100
AcDbLine
 10
166.635867
 20
133.136607
 30
0.0
 11
171.28801
 21
137.78875
 31
0.0
  0
LINE
  5
108
330
B6
100
AcDbEntity
  8
ZUWAKU
  6
Continuous
 62
     7
370
    13
100
AcDbLine
 10
166.635867
 20
133.278029
 30
0.0
 11
171.146588
 21
137.78875
 31
0.0
  0
LINE
  5
109
330
B6
100
AcDbEntity
  8
ZUWAKU
  6
Continuous
 62
     7
370
    13
100
AcDbLine
 10
166.635867
 20
133.41945
 30
0.0
 11
171.005167
 21
137.78875
 31
0.0
  0
LINE
  5
10A
330
B6
100
AcDbEntity
  8
ZUWAKU
  6
Continuous
 62
     7
370
    13
100
AcDbLine
 10
166.635867
 20
133.560871
 30
0.0
 11
170.863746
 21
137.78875
 31
0.0
  0
LINE
  5
10B
330
B6
100
AcDbEntity
  8
ZUWAKU
  6
Continuous
 62
     7
370
    13
100
AcDbLine
 10
166.635867
 20
133.702293
 30
0.0
 11
170.722324
 21
137.78875
 31
0.0
  0
LINE
  5
10C
330
B6
100
AcDbEntity
  8
ZUWAKU
  6
Continuous
 62
     7
370
    13
100
AcDbLine
 10
166.635867
 20
133.843714
 30
0.0
 11
170.580903
 21
137.78875
 31
0.0
  0
LINE
  5
10D
330
B6
100
AcDbEntity
  8
ZUWAKU
  6
Continuous
 62
     7
370
    13
100
AcDbLine
 10
166.635867
 20
133.985135
 30
0.0
 11
170.439482
 21
137.78875
 31
0.0
  0
LINE
  5
10E
330
B6
100
AcDbEntity
  8
ZUWAKU
  6
Continuous
 62
     7
370
    13
100
AcDbLine
 10
166.635867
 20
134.126557
 30
0.0
 11
170.29806
 21
137.78875
 31
0.0
  0
LINE
  5
10F
330
B6
100
AcDbEntity
  8
ZUWAKU
  6
Continuous
 62
     7
370
    13
100
AcDbLine
 10
166.635867
 20
134.267978
 30
0.0
 11
168.514251
 21
136.146362
 31
0.0
  0
LINE
  5
110
330
B6
100
AcDbEntity
  8
ZUWAKU
  6
Continuous
 62
     7
370
    13
100
AcDbLine
 10
168.723255
 20
136.355366
 30
0.0
 11
170.156639
 21
137.78875
 31
0.0
  0
LINE
  5
111
330
B6
100
AcDbEntity
  8
ZUWAKU
  6
Continuous
 62
     7
370
    13
100
AcDbLine
 10
166.635867
 20
134.409399
 30
0.0
 11
168.361133
 21
136.134666
 31
0.0
  0
LINE
  5
112
330
B6
100
AcDbEntity
  8
ZUWAKU
  6
Continuous
 62
     7
370
    13
100
AcDbLine
 10
168.749617
 20
136.523149
 30
0.0
 11
170.015218
 21
137.78875
 31
0.0
  0
LINE
  5
113
330
B6
100
AcDbEntity
  8
ZUWAKU
  6
Continuous
 62
     7
370
    13
100
AcDbLine
 10
166.635867
 20
134.550821
 30
0.0
 11
168.249598
 21
136.164552
 31
0.0
  0
LINE
  5
114
330
B6
100
AcDbEntity
  8
ZUWAKU
  6
Continuous
 62
     7
370
    13
100
AcDbLine
 10
168.749617
 20
136.664571
 30
0.0
 11
169.873796
 21
137.78875
 31
0.0
  0
LINE
  5
115
330
B6
100
AcDbEntity
  8
ZUWAKU
  6
Continuous
 62
     7
370
    13
100
AcDbLine
 10
166.635867
 20
134.692242
 30
0.0
 11
168.178665
 21
136.235041
 31
0.0
  0
LINE
  5
116
330
B6
100
AcDbEntity
  8
ZUWAKU
  6
Continuous
 62
     7
370
    13
100
AcDbLine
 10
168.749617
 20
136.805992
 30
0.0
 11
169.732375
 21
137.78875
 31
0.0
  0
LINE
  5
117
330
B6
100
AcDbEntity
  8
ZUWAKU
  6
Continuous
 62
     7
370
    13
100
AcDbLine
 10
166.635867
 20
134.833663
 30
0.0
 11
168.118853
 21
136.316649
 31
0.0
  0
LINE
  5
118
330
B6
100
AcDbEntity
  8
ZUWAKU
  6
Continuous
 62
     7
370
    13
100
AcDbLine
 10
168.749617
 20
136.947413
 30
0.0
 11
169.590954
 21
137.78875
 31
0.0
  0
LINE
  5
119
330
B6
100
AcDbEntity
  8
ZUWAKU
  6
Continuous
 62
     7
370
    13
100
AcDbLine
 10
166.635867
 20
134.975085
 30
0.0
 11
168.088967
 21
136.428185
 31
0.0
  0
LINE
  5
11A
330
B6
100
AcDbEntity
  8
ZUWAKU
  6
Continuous
 62
     7
370
    13
100
AcDbLine
 10
168.749617
 20
137.088835
 30
0.0
 11
169.449532
 21
137.78875
 31
0.0
  0
LINE
  5
11B
330
B6
100
AcDbEntity
  8
ZUWAKU
  6
Continuous
 62
     7
370
    13
100
AcDbLine
 10
166.635867
 20
135.116506
 30
0.0
 11
168.082117
 21
136.562756
 31
0.0
  0
LINE
  5
11C
330
B6
100
AcDbEntity
  8
ZUWAKU
  6
Continuous
 62
     7
370
    13
100
AcDbLine
 10
168.749617
 20
137.230256
 30
0.0
 11
169.308111
 21
137.78875
 31
0.0
  0
LINE
  5
11D
330
B6
100
AcDbEntity
  8
ZUWAKU
  6
Continuous
 62
     7
370
    13
100
AcDbLine
 10
166.635867
 20
135.257928
 30
0.0
 11
168.082117
 21
136.704178
 31
0.0
  0
LINE
  5
11E
330
B6
100
AcDbEntity
  8
ZUWAKU
  6
Continuous
 62
     7
370
    13
100
AcDbLine
 10
168.756551
 20
137.378612
 30
0.0
 11
169.159755
 21
137.781816
 31
0.0
  0
LINE
  5
11F
330
B6
100
AcDbEntity
  8
ZUWAKU
  6
Continuous
 62
     7
370
    13
100
AcDbLine
 10
166.635867
 20
135.399349
 30
0.0
 11
168.082117
 21
136.845599
 31
0.0
  0
LINE
  5
120
330
B6
100
AcDbEntity
  8
ZUWAKU
  6
Continuous
 62
     7
370
    13
100
AcDbLine
 10
168.849797
 20
137.613279
 30
0.0
 11
168.925088
 21
137.68857
 31
0.0
  0
LINE
  5
121
330
B6
100
AcDbEntity
  8
ZUWAKU
  6
Continuous
 62
     7
370
    13
100
AcDbLine
 10
166.635867
 20
135.54077
 30
0.0
 11
168.082117
 21
136.98702
 31
0.0
  0
LINE
  5
122
330
B6
100
AcDbEntity
  8
ZUWAKU
  6
Continuous
 62
     7
370
    13
100
AcDbLine
 10
166.635867
 20
135.682192
 30
0.0
 11
168.082117
 21
137.128442
 31
0.0
  0
LINE
  5
123
330
B6
100
AcDbEntity
  8
ZUWAKU
  6
Continuous
 62
     7
370
    13
100
AcDbLine
 10
166.635867
 20
135.823613
 30
0.0
 11
168.082117
 21
137.269863
 31
0.0
  0
LINE
  5
124
330
B6
100
AcDbEntity
  8
ZUWAKU
  6
Continuous
 62
     7
370
    13
100
AcDbLine
 10
166.635867
 20
135.965034
 30
0.0
 11
168.070912
 21
137.40008
 31
0.0
  0
LINE
  5
125
330
B6
100
AcDbEntity
  8
ZUWAKU
  6
Continuous
 62
     7
370
    13
100
AcDbLine
 10
166.635867
 20
136.106456
 30
0.0
 11
168.046326
 21
137.516914
 31
0.0
  0
LINE
  5
126
330
B6
100
AcDbEntity
  8
ZUWAKU
  6
Continuous
 62
     7
370
    13
100
AcDbLine
 10
166.635867
 20
136.247877
 30
0.0
 11
167.98968
 21
137.60169
 31
0.0
  0
LINE
  5
127
330
B6
100
AcDbEntity
  8
ZUWAKU
  6
Continuous
 62
     7
370
    13
100
AcDbLine
 10
166.635867
 20
136.389298
 30
0.0
 11
167.923726
 21
137.677157
 31
0.0
  0
LINE
  5
128
330
B6
100
AcDbEntity
  8
ZUWAKU
  6
Continuous
 62
     7
370
    13
100
AcDbLine
 10
166.635867
 20
136.53072
 30
0.0
 11
167.83895
 21
137.733803
 31
0.0
  0
LINE
  5
129
330
B6
100
AcDbEntity
  8
ZUWAKU
  6
Continuous
 62
     7
370
    13
100
AcDbLine
 10
166.635867
 20
136.672141
 30
0.0
 11
167.733337
 21
137.769611
 31
0.0
  0
LINE
  5
12A
330
B6
100
AcDbEntity
  8
ZUWAKU
  6
Continuous
 62
     7
370
    13
100
AcDbLine
 10
166.635867
 20
136.813562
 30
0.0
 11
167.611055
 21
137.78875
 31
0.0
  0
LINE
  5
12B
330
B6
100
AcDbEntity
  8
ZUWAKU
  6
Continuous
 62
     7
370
    13
100
AcDbLine
 10
166.635867
 20
136.954984
 30
0.0
 11
167.469633
 21
137.78875
 31
0.0
  0
LINE
  5
12C
330
B6
100
AcDbEntity
  8
ZUWAKU
  6
Continuous
 62
     7
370
    13
100
AcDbLine
 10
166.635867
 20
137.096405
 30
0.0
 11
167.328212
 21
137.78875
 31
0.0
  0
LINE
  5
12D
330
B6
100
AcDbEntity
  8
ZUWAKU
  6
Continuous
 62
     7
370
    13
100
AcDbLine
 10
166.635867
 20
137.237827
 30
0.0
 11
167.18679
 21
137.78875
 31
0.0
  0
LINE
  5
12E
330
B6
100
AcDbEntity
  8
ZUWAKU
  6
Continuous
 62
     7
370
    13
100
AcDbLine
 10
166.644681
 20
137.388062
 30
0.0
 11
167.036555
 21
137.779936
 31
0.0
  0
LINE
  5
12F
330
B6
100
AcDbEntity
  8
ZUWAKU
  6
Continuous
 62
     7
370
    13
100
AcDbLine
 10
166.751292
 20
137.636094
 30
0.0
 11
166.788523
 21
137.673325
 31
0.0
  0
LINE
  5
130
330
B6
100
AcDbEntity
  8
ZUWAKU
  6
Continuous
 62
     7
370
    13
100
AcDbLine
 10
171.965214
 20
137.397307
 30
0.0
 11
171.584424
 21
137.778097
 31
0.0
  0
LINE
  5
131
330
B6
100
AcDbEntity
  8
ZUWAKU
  6
Continuous
 62
     7
370
    13
100
AcDbLine
 10
171.975867
 20
137.245232
 30
0.0
 11
171.432349
 21
137.78875
 31
0.0
  0
LINE
  5
132
330
B6
100
AcDbEntity
  8
ZUWAKU
  6
Continuous
 62
     7
370
    13
100
AcDbLine
 10
171.975867
 20
137.103811
 30
0.0
 11
171.290928
 21
137.78875
 31
0.0
  0
LINE
  5
133
330
B6
100
AcDbEntity
  8
ZUWAKU
  6
Continuous
 62
     7
370
    13
100
AcDbLine
 10
171.975867
 20
136.96239
 30
0.0
 11
171.149507
 21
137.78875
 31
0.0
  0
LINE
  5
134
330
B6
100
AcDbEntity
  8
ZUWAKU
  6
Continuous
 62
     7
370
    13
100
AcDbLine
 10
171.975867
 20
136.820968
 30
0.0
 11
171.008085
 21
137.78875
 31
0.0
  0
LINE
  5
135
330
B6
100
AcDbEntity
  8
ZUWAKU
  6
Continuous
 62
     7
370
    13
100
AcDbLine
 10
171.975867
 20
136.679547
 30
0.0
 11
170.866664
 21
137.78875
 31
0.0
  0
LINE
  5
136
330
B6
100
AcDbEntity
  8
ZUWAKU
  6
Continuous
 62
     7
370
    13
100
AcDbLine
 10
171.975867
 20
136.538126
 30
0.0
 11
170.725243
 21
137.78875
 31
0.0
  0
LINE
  5
137
330
B6
100
AcDbEntity
  8
ZUWAKU
  6
Continuous
 62
     7
370
    13
100
AcDbLine
 10
171.975867
 20
136.396704
 30
0.0
 11
170.583821
 21
137.78875
 31
0.0
  0
LINE
  5
138
330
B6
100
AcDbEntity
  8
ZUWAKU
  6
Continuous
 62
     7
370
    13
100
AcDbLine
 10
171.975867
 20
136.255283
 30
0.0
 11
170.4424
 21
137.78875
 31
0.0
  0
LINE
  5
139
330
B6
100
AcDbEntity
  8
ZUWAKU
  6
Continuous
 62
     7
370
    13
100
AcDbLine
 10
171.975867
 20
136.113861
 30
0.0
 11
170.300978
 21
137.78875
 31
0.0
  0
LINE
  5
13A
330
B6
100
AcDbEntity
  8
ZUWAKU
  6
Continuous
 62
     7
370
    13
100
AcDbLine
 10
171.975867
 20
135.97244
 30
0.0
 11
170.159557
 21
137.78875
 31
0.0
  0
LINE
  5
13B
330
B6
100
AcDbEntity
  8
ZUWAKU
  6
Continuous
 62
     7
370
    13
100
AcDbLine
 10
171.975867
 20
135.831019
 30
0.0
 11
170.018136
 21
137.78875
 31
0.0
  0
LINE
  5
13C
330
B6
100
AcDbEntity
  8
ZUWAKU
  6
Continuous
 62
     7
370
    13
100
AcDbLine
 10
171.975867
 20
135.689597
 30
0.0
 11
169.876714
 21
137.78875
 31
0.0
  0
LINE
  5
13D
330
B6
100
AcDbEntity
  8
ZUWAKU
  6
Continuous
 62
     7
370
    13
100
AcDbLine
 10
171.975867
 20
135.548176
 30
0.0
 11
169.735293
 21
137.78875
 31
0.0
  0
LINE
  5
13E
330
B6
100
AcDbEntity
  8
ZUWAKU
  6
Continuous
 62
     7
370
    13
100
AcDbLine
 10
171.975867
 20
135.406755
 30
0.0
 11
169.593872
 21
137.78875
 31
0.0
  0
LINE
  5
13F
330
B6
100
AcDbEntity
  8
ZUWAKU
  6
Continuous
 62
     7
370
    13
100
AcDbLine
 10
171.975867
 20
135.265333
 30
0.0
 11
169.45245
 21
137.78875
 31
0.0
  0
LINE
  5
140
330
B6
100
AcDbEntity
  8
ZUWAKU
  6
Continuous
 62
     7
370
    13
100
AcDbLine
 10
171.975867
 20
135.123912
 30
0.0
 11
169.311029
 21
137.78875
 31
0.0
  0
LINE
  5
141
330
B6
100
AcDbEntity
  8
ZUWAKU
  6
Continuous
 62
     7
370
    13
100
AcDbLine
 10
171.975867
 20
134.982491
 30
0.0
 11
169.173757
 21
137.784601
 31
0.0
  0
LINE
  5
142
330
B6
100
AcDbEntity
  8
ZUWAKU
  6
Continuous
 62
     7
370
    13
100
AcDbLine
 10
171.975867
 20
134.841069
 30
0.0
 11
169.055799
 21
137.761137
 31
0.0
  0
LINE
  5
143
330
B6
100
AcDbEntity
  8
ZUWAKU
  6
Continuous
 62
     7
370
    13
100
AcDbLine
 10
171.975867
 20
134.699648
 30
0.0
 11
168.962169
 21
137.713346
 31
0.0
  0
LINE
  5
144
330
B6
100
AcDbEntity
  8
ZUWAKU
  6
Continuous
 62
     7
370
    13
100
AcDbLine
 10
171.975867
 20
134.558227
 30
0.0
 11
168.878243
 21
137.655851
 31
0.0
  0
LINE
  5
145
330
B6
100
AcDbEntity
  8
ZUWAKU
  6
Continuous
 62
     7
370
    13
100
AcDbLine
 10
171.975867
 20
134.416805
 30
0.0
 11
168.821597
 21
137.571075
 31
0.0
  0
LINE
  5
146
330
B6
100
AcDbEntity
  8
ZUWAKU
  6
Continuous
 62
     7
370
    13
100
AcDbLine
 10
171.975867
 20
134.275384
 30
0.0
 11
168.775812
 21
137.475439
 31
0.0
  0
LINE
  5
147
330
B6
100
AcDbEntity
  8
ZUWAKU
  6
Continuous
 62
     7
370
    13
100
AcDbLine
 10
171.975867
 20
134.133962
 30
0.0
 11
168.752348
 21
137.357481
 31
0.0
  0
LINE
  5
148
330
B6
100
AcDbEntity
  8
ZUWAKU
  6
Continuous
 62
     7
370
    13
100
AcDbLine
 10
171.975867
 20
133.992541
 30
0.0
 11
168.749617
 21
137.218791
 31
0.0
  0
LINE
  5
149
330
B6
100
AcDbEntity
  8
ZUWAKU
  6
Continuous
 62
     7
370
    13
100
AcDbLine
 10
171.975867
 20
133.85112
 30
0.0
 11
168.749617
 21
137.07737
 31
0.0
  0
LINE
  5
14A
330
B6
100
AcDbEntity
  8
ZUWAKU
  6
Continuous
 62
     7
370
    13
100
AcDbLine
 10
171.975867
 20
133.709698
 30
0.0
 11
168.749617
 21
136.935948
 31
0.0
  0
LINE
  5
14B
330
B6
100
AcDbEntity
  8
ZUWAKU
  6
Continuous
 62
     7
370
    13
100
AcDbLine
 10
171.975867
 20
133.568277
 30
0.0
 11
168.749617
 21
136.794527
 31
0.0
  0
LINE
  5
14C
330
B6
100
AcDbEntity
  8
ZUWAKU
  6
Continuous
 62
     7
370
    13
100
AcDbLine
 10
168.052748
 20
137.491396
 30
0.0
 11
167.784763
 21
137.759381
 31
0.0
  0
LINE
  5
14D
330
B6
100
AcDbEntity
  8
ZUWAKU
  6
Continuous
 62
     7
370
    13
100
AcDbLine
 10
171.975867
 20
133.426856
 30
0.0
 11
168.749617
 21
136.653106
 31
0.0
  0
LINE
  5
14E
330
B6
100
AcDbEntity
  8
ZUWAKU
  6
Continuous
 62
     7
370
    13
100
AcDbLine
 10
168.082117
 20
137.320606
 30
0.0
 11
167.613973
 21
137.78875
 31
0.0
  0
LINE
  5
14F
330
B6
100
AcDbEntity
  8
ZUWAKU
  6
Continuous
 62
     7
370
    13
100
AcDbLine
 10
171.975867
 20
133.285434
 30
0.0
 11
168.749617
 21
136.511684
 31
0.0
  0
LINE
  5
150
330
B6
100
AcDbEntity
  8
ZUWAKU
  6
Continuous
 62
     7
370
    13
100
AcDbLine
 10
168.082117
 20
137.179184
 30
0.0
 11
167.472551
 21
137.78875
 31
0.0
  0
LINE
  5
151
330
B6
100
AcDbEntity
  8
ZUWAKU
  6
Continuous
 62
     7
370
    13
100
AcDbLine
 10
171.975867
 20
133.144013
 30
0.0
 11
168.731974
 21
136.387906
 31
0.0
  0
LINE
  5
152
330
B6
100
AcDbEntity
  8
ZUWAKU
  6
Continuous
 62
     7
370
    13
100
AcDbLine
 10
168.082117
 20
137.037763
 30
0.0
 11
167.33113
 21
137.78875
 31
0.0
  0
LINE
  5
153
330
B6
100
AcDbEntity
  8
ZUWAKU
  6
Continuous
 62
     7
370
    13
100
AcDbLine
 10
171.975867
 20
133.002592
 30
0.0
 11
168.698243
 21
136.280215
 31
0.0
  0
LINE
  5
154
330
B6
100
AcDbEntity
  8
ZUWAKU
  6
Continuous
 62
     7
370
    13
100
AcDbLine
 10
168.082117
 20
136.896342
 30
0.0
 11
167.189709
 21
137.78875
 31
0.0
  0
LINE
  5
155
330
B6
100
AcDbEntity
  8
ZUWAKU
  6
Continuous
 62
     7
370
    13
100
AcDbLine
 10
171.975867
 20
132.86117
 30
0.0
 11
168.627533
 21
136.209505
 31
0.0
  0
LINE
  5
156
330
B6
100
AcDbEntity
  8
ZUWAKU
  6
Continuous
 62
     7
370
    13
100
AcDbLine
 10
168.082117
 20
136.75492
 30
0.0
 11
167.053693
 21
137.783345
 31
0.0
  0
LINE
  5
157
330
B6
100
AcDbEntity
  8
ZUWAKU
  6
Continuous
 62
     7
370
    13
100
AcDbLine
 10
171.975867
 20
132.719749
 30
0.0
 11
168.541857
 21
136.153759
 31
0.0
  0
LINE
  5
158
330
B6
100
AcDbEntity
  8
ZUWAKU
  6
Continuous
 62
     7
370
    13
100
AcDbLine
 10
168.082117
 20
136.613499
 30
0.0
 11
166.935735
 21
137.759881
 31
0.0
  0
LINE
  5
159
330
B6
100
AcDbEntity
  8
ZUWAKU
  6
Continuous
 62
     7
370
    13
100
AcDbLine
 10
171.975867
 20
132.578328
 30
0.0
 11
168.430321
 21
136.123873
 31
0.0
  0
LINE
  5
15A
330
B6
100
AcDbEntity
  8
ZUWAKU
  6
Continuous
 62
     7
370
    13
100
AcDbLine
 10
168.082117
 20
136.472078
 30
0.0
 11
166.843881
 21
137.710314
 31
0.0
  0
LINE
  5
15B
330
B6
100
AcDbEntity
  8
ZUWAKU
  6
Continuous
 62
     7
370
    13
100
AcDbLine
 10
171.975867
 20
132.436906
 30
0.0
 11
166.761461
 21
137.651313
 31
0.0
  0
LINE
  5
15C
330
B6
100
AcDbEntity
  8
ZUWAKU
  6
Continuous
 62
     7
370
    13
100
AcDbLine
 10
171.975867
 20
132.295485
 30
0.0
 11
166.704815
 21
137.566537
 31
0.0
  0
LINE
  5
15D
330
B6
100
AcDbEntity
  8
ZUWAKU
  6
Continuous
 62
     7
370
    13
100
AcDbLine
 10
171.975867
 20
132.154063
 30
0.0
 11
166.660806
 21
137.469125
 31
0.0
  0
LINE
  5
15E
330
B6
100
AcDbEntity
  8
ZUWAKU
  6
Continuous
 62
     7
370
    13
100
AcDbLine
 10
171.975867
 20
132.012642
 30
0.0
 11
166.637342
 21
137.351167
 31
0.0
  0
LINE
  5
15F
330
B6
100
AcDbEntity
  8
ZUWAKU
  6
Continuous
 62
     7
370
    13
100
AcDbLine
 10
171.975867
 20
131.871221
 30
0.0
 11
166.635867
 21
137.211221
 31
0.0
  0
LINE
  5
160
330
B6
100
AcDbEntity
  8
ZUWAKU
  6
Continuous
 62
     7
370
    13
100
AcDbLine
 10
171.975867
 20
131.729799
 30
0.0
 11
166.635867
 21
137.069799
 31
0.0
  0
LINE
  5
161
330
B6
100
AcDbEntity
  8
ZUWAKU
  6
Continuous
 62
     7
370
    13
100
AcDbLine
 10
171.975867
 20
131.588378
 30
0.0
 11
166.635867
 21
136.928378
 31
0.0
  0
LINE
  5
162
330
B6
100
AcDbEntity
  8
ZUWAKU
  6
Continuous
 62
     7
370
    13
100
AcDbLine
 10
171.975867
 20
131.446957
 30
0.0
 11
166.635867
 21
136.786957
 31
0.0
  0
LINE
  5
163
330
B6
100
AcDbEntity
  8
ZUWAKU
  6
Continuous
 62
     7
370
    13
100
AcDbLine
 10
171.975867
 20
131.305535
 30
0.0
 11
166.635867
 21
136.645535
 31
0.0
  0
LINE
  5
164
330
B6
100
AcDbEntity
  8
ZUWAKU
  6
Continuous
 62
     7
370
    13
100
AcDbLine
 10
171.975867
 20
131.164114
 30
0.0
 11
166.635867
 21
136.504114
 31
0.0
  0
LINE
  5
165
330
B6
100
AcDbEntity
  8
ZUWAKU
  6
Continuous
 62
     7
370
    13
100
AcDbLine
 10
171.975867
 20
131.022693
 30
0.0
 11
166.635867
 21
136.362693
 31
0.0
  0
LINE
  5
166
330
B6
100
AcDbEntity
  8
ZUWAKU
  6
Continuous
 62
     7
370
    13
100
AcDbLine
 10
171.975867
 20
130.881271
 30
0.0
 11
166.635867
 21
136.221271
 31
0.0
  0
LINE
  5
167
330
B6
100
AcDbEntity
  8
ZUWAKU
  6
Continuous
 62
     7
370
    13
100
AcDbLine
 10
171.975867
 20
130.73985
 30
0.0
 11
166.635867
 21
136.07985
 31
0.0
  0
LINE
  5
168
330
B6
100
AcDbEntity
  8
ZUWAKU
  6
Continuous
 62
     7
370
    13
100
AcDbLine
 10
171.975867
 20
130.598429
 30
0.0
 11
166.635867
 21
135.938429
 31
0.0
  0
LINE
  5
169
330
B6
100
AcDbEntity
  8
ZUWAKU
  6
Continuous
 62
     7
370
    13
100
AcDbLine
 10
171.975867
 20
130.457007
 30
0.0
 11
166.635867
 21
135.797007
 31
0.0
  0
LINE
  5
16A
330
B6
100
AcDbEntity
  8
ZUWAKU
  6
Continuous
 62
     7
370
    13
100
AcDbLine
 10
171.954188
 20
130.337264
 30
0.0
 11
166.635867
 21
135.655586
 31
0.0
  0
LINE
  5
16B
330
B6
100
AcDbEntity
  8
ZUWAKU
  6
Continuous
 62
     7
370
    13
100
AcDbLine
 10
171.914789
 20
130.235242
 30
0.0
 11
166.635867
 21
135.514165
 31
0.0
  0
LINE
  5
16C
330
B6
100
AcDbEntity
  8
ZUWAKU
  6
Continuous
 62
     7
370
    13
100
AcDbLine
 10
171.858144
 20
130.150466
 30
0.0
 11
166.635867
 21
135.372743
 31
0.0
  0
LINE
  5
16D
330
B6
100
AcDbEntity
  8
ZUWAKU
  6
Continuous
 62
     7
370
    13
100
AcDbLine
 10
171.779632
 20
130.087556
 30
0.0
 11
166.635867
 21
135.231322
 31
0.0
  0
LINE
  5
16E
330
B6
100
AcDbEntity
  8
ZUWAKU
  6
Continuous
 62
     7
370
    13
100
AcDbLine
 10
171.692389
 20
130.033379
 30
0.0
 11
166.635867
 21
135.0899
 31
0.0
  0
LINE
  5
16F
330
B6
100
AcDbEntity
  8
ZUWAKU
  6
Continuous
 62
     7
370
    13
100
AcDbLine
 10
171.574431
 20
130.009915
 30
0.0
 11
166.635867
 21
134.948479
 31
0.0
  0
LINE
  5
170
330
B6
100
AcDbEntity
  8
ZUWAKU
  6
Continuous
 62
     7
370
    13
100
AcDbLine
 10
171.441675
 20
130.00125
 30
0.0
 11
166.635867
 21
134.807058
 31
0.0
  0
LINE
  5
171
330
B6
100
AcDbEntity
  8
ZUWAKU
  6
Continuous
 62
     7
370
    13
100
AcDbLine
 10
171.300253
 20
130.00125
 30
0.0
 11
166.635867
 21
134.665636
 31
0.0
  0
LINE
  5
172
330
B6
100
AcDbEntity
  8
ZUWAKU
  6
Continuous
 62
     7
370
    13
100
AcDbLine
 10
171.158832
 20
130.00125
 30
0.0
 11
166.635867
 21
134.524215
 31
0.0
  0
LINE
  5
173
330
B6
100
AcDbEntity
  8
ZUWAKU
  6
Continuous
 62
     7
370
    13
100
AcDbLine
 10
171.017411
 20
130.00125
 30
0.0
 11
166.635867
 21
134.382794
 31
0.0
  0
LINE
  5
174
330
B6
100
AcDbEntity
  8
ZUWAKU
  6
Continuous
 62
     7
370
    13
100
AcDbLine
 10
170.875989
 20
130.00125
 30
0.0
 11
166.635867
 21
134.241372
 31
0.0
  0
LINE
  5
175
330
B6
100
AcDbEntity
  8
ZUWAKU
  6
Continuous
 62
     7
370
    13
100
AcDbLine
 10
170.734568
 20
130.00125
 30
0.0
 11
166.635867
 21
134.099951
 31
0.0
  0
LINE
  5
176
330
B6
100
AcDbEntity
  8
ZUWAKU
  6
Continuous
 62
     7
370
    13
100
AcDbLine
 10
170.593147
 20
130.00125
 30
0.0
 11
166.635867
 21
133.95853
 31
0.0
  0
LINE
  5
177
330
B6
100
AcDbEntity
  8
ZUWAKU
  6
Continuous
 62
     7
370
    13
100
AcDbLine
 10
170.451725
 20
130.00125
 30
0.0
 11
166.635867
 21
133.817108
 31
0.0
  0
LINE
  5
178
330
B6
100
AcDbEntity
  8
ZUWAKU
  6
Continuous
 62
     7
370
    13
100
AcDbLine
 10
170.310304
 20
130.00125
 30
0.0
 11
166.635867
 21
133.675687
 31
0.0
  0
LINE
  5
179
330
B6
100
AcDbEntity
  8
ZUWAKU
  6
Continuous
 62
     7
370
    13
100
AcDbLine
 10
170.168883
 20
130.00125
 30
0.0
 11
168.718774
 21
131.451359
 31
0.0
  0
LINE
  5
17A
330
B6
100
AcDbEntity
  8
ZUWAKU
  6
Continuous
 62
     7
370
    13
100
AcDbLine
 10
168.530976
 20
131.639157
 30
0.0
 11
166.635867
 21
133.534266
 31
0.0
  0
LINE
  5
17B
330
B6
100
AcDbEntity
  8
ZUWAKU
  6
Continuous
 62
     7
370
    13
100
AcDbLine
 10
170.027461
 20
130.00125
 30
0.0
 11
168.749617
 21
131.279094
 31
0.0
  0
LINE
  5
17C
330
B6
100
AcDbEntity
  8
ZUWAKU
  6
Continuous
 62
     7
370
    13
100
AcDbLine
 10
168.37079
 20
131.657922
 30
0.0
 11
166.635867
 21
133.392844
 31
0.0
  0
LINE
  5
17D
330
B6
100
AcDbEntity
  8
ZUWAKU
  6
Continuous
 62
     7
370
    13
100
AcDbLine
 10
169.88604
 20
130.00125
 30
0.0
 11
168.749617
 21
131.137673
 31
0.0
  0
LINE
  5
17E
330
B6
100
AcDbEntity
  8
ZUWAKU
  6
Continuous
 62
     7
370
    13
100
AcDbLine
 10
168.259254
 20
131.628036
 30
0.0
 11
166.635867
 21
133.251423
 31
0.0
  0
LINE
  5
17F
330
B6
100
AcDbEntity
  8
ZUWAKU
  6
Continuous
 62
     7
370
    13
100
AcDbLine
 10
169.744618
 20
130.00125
 30
0.0
 11
168.749617
 21
130.996251
 31
0.0
  0
LINE
  5
180
330
B6
100
AcDbEntity
  8
ZUWAKU
  6
Continuous
 62
     7
370
    13
100
AcDbLine
 10
168.184787
 20
131.561081
 30
0.0
 11
166.635867
 21
133.110001
 31
0.0
  0
LINE
  5
181
330
B6
100
AcDbEntity
  8
ZUWAKU
  6
Continuous
 62
     7
370
    13
100
AcDbLine
 10
169.603197
 20
130.00125
 30
0.0
 11
168.749617
 21
130.85483
 31
0.0
  0
LINE
  5
182
330
B6
100
AcDbEntity
  8
ZUWAKU
  6
Continuous
 62
     7
370
    13
100
AcDbLine
 10
168.12144
 20
131.483007
 30
0.0
 11
166.635867
 21
132.96858
 31
0.0
  0
LINE
  5
183
330
B6
100
AcDbEntity
  8
ZUWAKU
  6
Continuous
 62
     7
370
    13
100
AcDbLine
 10
169.461776
 20
130.00125
 30
0.0
 11
168.749617
 21
130.713409
 31
0.0
  0
LINE
  5
184
330
B6
100
AcDbEntity
  8
ZUWAKU
  6
Continuous
 62
     7
370
    13
100
AcDbLine
 10
168.091555
 20
131.371471
 30
0.0
 11
166.635867
 21
132.827159
 31
0.0
  0
LINE
  5
185
330
B6
100
AcDbEntity
  8
ZUWAKU
  6
Continuous
 62
     7
370
    13
100
AcDbLine
 10
169.320354
 20
130.00125
 30
0.0
 11
168.749617
 21
130.571987
 31
0.0
  0
LINE
  5
186
330
B6
100
AcDbEntity
  8
ZUWAKU
  6
Continuous
 62
     7
370
    13
100
AcDbLine
 10
168.082117
 20
131.239487
 30
0.0
 11
166.635867
 21
132.685737
 31
0.0
  0
LINE
  5
187
330
B6
100
AcDbEntity
  8
ZUWAKU
  6
Continuous
 62
     7
370
    13
100
AcDbLine
 10
169.175039
 20
130.005144
 30
0.0
 11
168.753511
 21
130.426672
 31
0.0
  0
LINE
  5
188
330
B6
100
AcDbEntity
  8
ZUWAKU
  6
Continuous
 62
     7
370
    13
100
AcDbLine
 10
168.082117
 20
131.098066
 30
0.0
 11
166.635867
 21
132.544316
 31
0.0
  0
LINE
  5
189
330
B6
100
AcDbEntity
  8
ZUWAKU
  6
Continuous
 62
     7
370
    13
100
AcDbLine
 10
168.961986
 20
130.076776
 30
0.0
 11
168.825143
 21
130.213619
 31
0.0
  0
LINE
  5
18A
330
B6
100
AcDbEntity
  8
ZUWAKU
  6
Continuous
 62
     7
370
    13
100
AcDbLine
 10
168.082117
 20
130.956645
 30
0.0
 11
166.635867
 21
132.402895
 31
0.0
  0
LINE
  5
18B
330
B6
100
AcDbEntity
  8
ZUWAKU
  6
Continuous
 62
     7
370
    13
100
AcDbLine
 10
168.082117
 20
130.815223
 30
0.0
 11
166.635867
 21
132.261473
 31
0.0
  0
LINE
  5
18C
330
B6
100
AcDbEntity
  8
ZUWAKU
  6
Continuous
 62
     7
370
    13
100
AcDbLine
 10
168.082117
 20
130.673802
 30
0.0
 11
166.635867
 21
132.120052
 31
0.0
  0
LINE
  5
18D
330
B6
100
AcDbEntity
  8
ZUWAKU
  6
Continuous
 62
     7
370
    13
100
AcDbLine
 10
168.082117
 20
130.532381
 30
0.0
 11
166.635867
 21
131.978631
 31
0.0
  0
LINE
  5
18E
330
B6
100
AcDbEntity
  8
ZUWAKU
  6
Continuous
 62
     7
370
    13
100
AcDbLine
 10
168.072944
 20
130.400133
 30
0.0
 11
166.635867
 21
131.837209
 31
0.0
  0
LINE
  5
18F
330
B6
100
AcDbEntity
  8
ZUWAKU
  6
Continuous
 62
     7
370
    13
100
AcDbLine
 10
168.04948
 20
130.282175
 30
0.0
 11
166.635867
 21
131.695788
 31
0.0
  0
LINE
  5
190
330
B6
100
AcDbEntity
  8
ZUWAKU
  6
Continuous
 62
     7
370
    13
100
AcDbLine
 10
167.994584
 20
130.195649
 30
0.0
 11
166.635867
 21
131.554367
 31
0.0
  0
LINE
  5
191
330
B6
100
AcDbEntity
  8
ZUWAKU
  6
Continuous
 62
     7
370
    13
100
AcDbLine
 10
167.931065
 20
130.117747
 30
0.0
 11
166.635867
 21
131.412945
 31
0.0
  0
LINE
  5
192
330
B6
100
AcDbEntity
  8
ZUWAKU
  6
Continuous
 62
     7
370
    13
100
AcDbLine
 10
167.84629
 20
130.061101
 30
0.0
 11
166.635867
 21
131.271524
 31
0.0
  0
LINE
  5
193
330
B6
100
AcDbEntity
  8
ZUWAKU
  6
Continuous
 62
     7
370
    13
100
AcDbLine
 10
167.743549
 20
130.022421
 30
0.0
 11
166.635867
 21
131.130102
 31
0.0
  0
LINE
  5
194
330
B6
100
AcDbEntity
  8
ZUWAKU
  6
Continuous
 62
     7
370
    13
100
AcDbLine
 10
167.623298
 20
130.00125
 30
0.0
 11
166.635867
 21
130.988681
 31
0.0
  0
LINE
  5
195
330
B6
100
AcDbEntity
  8
ZUWAKU
  6
Continuous
 62
     7
370
    13
100
AcDbLine
 10
167.481877
 20
130.00125
 30
0.0
 11
166.635867
 21
130.84726
 31
0.0
  0
LINE
  5
196
330
B6
100
AcDbEntity
  8
ZUWAKU
  6
Continuous
 62
     7
370
    13
100
AcDbLine
 10
167.340455
 20
130.00125
 30
0.0
 11
166.635867
 21
130.705838
 31
0.0
  0
LINE
  5
197
330
B6
100
AcDbEntity
  8
ZUWAKU
  6
Continuous
 62
     7
370
    13
100
AcDbLine
 10
167.199034
 20
130.00125
 30
0.0
 11
166.635867
 21
130.564417
 31
0.0
  0
LINE
  5
198
330
B6
100
AcDbEntity
  8
ZUWAKU
  6
Continuous
 62
     7
370
    13
100
AcDbLine
 10
167.051839
 20
130.007024
 30
0.0
 11
166.641641
 21
130.417222
 31
0.0
  0
LINE
  5
199
330
B6
100
AcDbEntity
  8
ZUWAKU
  6
Continuous
 62
     7
370
    13
100
AcDbLine
 10
166.825421
 20
130.09202
 30
0.0
 11
166.726637
 21
130.190804
 31
0.0
  0
ENDBLK
  5
B8
330
B6
100
AcDbEntity
  8
0
100
AcDbBlockEnd
  0
BLOCK
  5
BA
330
B9
100
AcDbEntity
  8
0
100
AcDbBlockBegin
  2
DC_GROUP_HFB-3M_2
 70
     0
 10
0.0
 20
0.0
 30
0.0
  3
DC_GROUP_HFB-3M_2
  1

  0
LINE
  5
19A
330
B9
100
AcDbEntity
  8
ZUWAKU
  6
Continuous
 62
     7
370
    13
100
AcDbLine
 10
177.668538
 20
130.027143
 30
0.0
 11
177.957474
 21
130.316079
 31
0.0
  0
LINE
  5
19B
330
B9
100
AcDbEntity
  8
ZUWAKU
  6
Continuous
 62
     7
370
    13
100
AcDbLine
 10
177.501224
 20
130.00125
 30
0.0
 11
177.983367
 21
130.483393
 31
0.0
  0
LINE
  5
19C
330
B9
100
AcDbEntity
  8
ZUWAKU
  6
Continuous
 62
     7
370
    13
100
AcDbLine
 10
177.359803
 20
130.00125
 30
0.0
 11
177.983367
 21
130.624814
 31
0.0
  0
LINE
  5
19D
330
B9
100
AcDbEntity
  8
ZUWAKU
  6
Continuous
 62
     7
370
    13
100
AcDbLine
 10
177.218381
 20
130.00125
 30
0.0
 11
177.983367
 21
130.766236
 31
0.0
  0
LINE
  5
19E
330
B9
100
AcDbEntity
  8
ZUWAKU
  6
Continuous
 62
     7
370
    13
100
AcDbLine
 10
177.07696
 20
130.00125
 30
0.0
 11
177.983367
 21
130.907657
 31
0.0
  0
LINE
  5
19F
330
B9
100
AcDbEntity
  8
ZUWAKU
  6
Continuous
 62
     7
370
    13
100
AcDbLine
 10
176.935539
 20
130.00125
 30
0.0
 11
177.983367
 21
131.049078
 31
0.0
  0
LINE
  5
1A0
330
B9
100
AcDbEntity
  8
ZUWAKU
  6
Continuous
 62
     7
370
    13
100
AcDbLine
 10
176.794117
 20
130.00125
 30
0.0
 11
177.983367
 21
131.1905
 31
0.0
  0
LINE
  5
1A1
330
B9
100
AcDbEntity
  8
ZUWAKU
  6
Continuous
 62
     7
370
    13
100
AcDbLine
 10
176.652696
 20
130.00125
 30
0.0
 11
177.983367
 21
131.331921
 31
0.0
  0
LINE
  5
1A2
330
B9
100
AcDbEntity
  8
ZUWAKU
  6
Continuous
 62
     7
370
    13
100
AcDbLine
 10
176.511275
 20
130.00125
 30
0.0
 11
177.983367
 21
131.473342
 31
0.0
  0
LINE
  5
1A3
330
B9
100
AcDbEntity
  8
ZUWAKU
  6
Continuous
 62
     7
370
    13
100
AcDbLine
 10
176.369853
 20
130.00125
 30
0.0
 11
177.983367
 21
131.614764
 31
0.0
  0
LINE
  5
1A4
330
B9
100
AcDbEntity
  8
ZUWAKU
  6
Continuous
 62
     7
370
    13
100
AcDbLine
 10
176.228432
 20
130.00125
 30
0.0
 11
177.983367
 21
131.756185
 31
0.0
  0
LINE
  5
1A5
330
B9
100
AcDbEntity
  8
ZUWAKU
  6
Continuous
 62
     7
370
    13
100
AcDbLine
 10
176.087011
 20
130.00125
 30
0.0
 11
177.983367
 21
131.897606
 31
0.0
  0
LINE
  5
1A6
330
B9
100
AcDbEntity
  8
ZUWAKU
  6
Continuous
 62
     7
370
    13
100
AcDbLine
 10
175.945589
 20
130.00125
 30
0.0
 11
177.983367
 21
132.039028
 31
0.0
  0
LINE
  5
1A7
330
B9
100
AcDbEntity
  8
ZUWAKU
  6
Continuous
 62
     7
370
    13
100
AcDbLine
 10
175.804168
 20
130.00125
 30
0.0
 11
177.983367
 21
132.180449
 31
0.0
  0
LINE
  5
1A8
330
B9
100
AcDbEntity
  8
ZUWAKU
  6
Continuous
 62
     7
370
    13
100
AcDbLine
 10
175.662746
 20
130.00125
 30
0.0
 11
177.983367
 21
132.321871
 31
0.0
  0
LINE
  5
1A9
330
B9
100
AcDbEntity
  8
ZUWAKU
  6
Continuous
 62
     7
370
    13
100
AcDbLine
 10
175.521325
 20
130.00125
 30
0.0
 11
177.983367
 21
132.463292
 31
0.0
  0
LINE
  5
1AA
330
B9
100
AcDbEntity
  8
ZUWAKU
  6
Continuous
 62
     7
370
    13
100
AcDbLine
 10
175.379904
 20
130.00125
 30
0.0
 11
177.983367
 21
132.604713
 31
0.0
  0
LINE
  5
1AB
330
B9
100
AcDbEntity
  8
ZUWAKU
  6
Continuous
 62
     7
370
    13
100
AcDbLine
 10
175.238482
 20
130.00125
 30
0.0
 11
177.983367
 21
132.746135
 31
0.0
  0
LINE
  5
1AC
330
B9
100
AcDbEntity
  8
ZUWAKU
  6
Continuous
 62
     7
370
    13
100
AcDbLine
 10
175.097061
 20
130.00125
 30
0.0
 11
177.983367
 21
132.887556
 31
0.0
  0
LINE
  5
1AD
330
B9
100
AcDbEntity
  8
ZUWAKU
  6
Continuous
 62
     7
370
    13
100
AcDbLine
 10
174.95564
 20
130.00125
 30
0.0
 11
177.983367
 21
133.028977
 31
0.0
  0
LINE
  5
1AE
330
B9
100
AcDbEntity
  8
ZUWAKU
  6
Continuous
 62
     7
370
    13
100
AcDbLine
 10
174.814218
 20
130.00125
 30
0.0
 11
177.983367
 21
133.170399
 31
0.0
  0
LINE
  5
1AF
330
B9
100
AcDbEntity
  8
ZUWAKU
  6
Continuous
 62
     7
370
    13
100
AcDbLine
 10
174.672797
 20
130.00125
 30
0.0
 11
177.983367
 21
133.31182
 31
0.0
  0
LINE
  5
1B0
330
B9
100
AcDbEntity
  8
ZUWAKU
  6
Continuous
 62
     7
370
    13
100
AcDbLine
 10
174.531376
 20
130.00125
 30
0.0
 11
177.983367
 21
133.453241
 31
0.0
  0
LINE
  5
1B1
330
B9
100
AcDbEntity
  8
ZUWAKU
  6
Continuous
 62
     7
370
    13
100
AcDbLine
 10
174.389954
 20
130.00125
 30
0.0
 11
177.983367
 21
133.594663
 31
0.0
  0
LINE
  5
1B2
330
B9
100
AcDbEntity
  8
ZUWAKU
  6
Continuous
 62
     7
370
    13
100
AcDbLine
 10
174.248533
 20
130.00125
 30
0.0
 11
177.983367
 21
133.736084
 31
0.0
  0
LINE
  5
1B3
330
B9
100
AcDbEntity
  8
ZUWAKU
  6
Continuous
 62
     7
370
    13
100
AcDbLine
 10
174.107112
 20
130.00125
 30
0.0
 11
177.983367
 21
133.877505
 31
0.0
  0
LINE
  5
1B4
330
B9
100
AcDbEntity
  8
ZUWAKU
  6
Continuous
 62
     7
370
    13
100
AcDbLine
 10
173.96569
 20
130.00125
 30
0.0
 11
177.983367
 21
134.018927
 31
0.0
  0
LINE
  5
1B5
330
B9
100
AcDbEntity
  8
ZUWAKU
  6
Continuous
 62
     7
370
    13
100
AcDbLine
 10
173.824269
 20
130.00125
 30
0.0
 11
177.983367
 21
134.160348
 31
0.0
  0
LINE
  5
1B6
330
B9
100
AcDbEntity
  8
ZUWAKU
  6
Continuous
 62
     7
370
    13
100
AcDbLine
 10
173.682847
 20
130.00125
 30
0.0
 11
177.983367
 21
134.30177
 31
0.0
  0
LINE
  5
1B7
330
B9
100
AcDbEntity
  8
ZUWAKU
  6
Continuous
 62
     7
370
    13
100
AcDbLine
 10
173.541426
 20
130.00125
 30
0.0
 11
177.983367
 21
134.443191
 31
0.0
  0
LINE
  5
1B8
330
B9
100
AcDbEntity
  8
ZUWAKU
  6
Continuous
 62
     7
370
    13
100
AcDbLine
 10
173.400005
 20
130.00125
 30
0.0
 11
177.983367
 21
134.584612
 31
0.0
  0
LINE
  5
1B9
330
B9
100
AcDbEntity
  8
ZUWAKU
  6
Continuous
 62
     7
370
    13
100
AcDbLine
 10
173.258583
 20
130.00125
 30
0.0
 11
177.983367
 21
134.726034
 31
0.0
  0
LINE
  5
1BA
330
B9
100
AcDbEntity
  8
ZUWAKU
  6
Continuous
 62
     7
370
    13
100
AcDbLine
 10
173.117162
 20
130.00125
 30
0.0
 11
177.983367
 21
134.867455
 31
0.0
  0
LINE
  5
1BB
330
B9
100
AcDbEntity
  8
ZUWAKU
  6
Continuous
 62
     7
370
    13
100
AcDbLine
 10
172.994427
 20
130.019936
 30
0.0
 11
177.983367
 21
135.008876
 31
0.0
  0
LINE
  5
1BC
330
B9
100
AcDbEntity
  8
ZUWAKU
  6
Continuous
 62
     7
370
    13
100
AcDbLine
 10
172.888172
 20
130.055103
 30
0.0
 11
177.983367
 21
135.150298
 31
0.0
  0
LINE
  5
1BD
330
B9
100
AcDbEntity
  8
ZUWAKU
  6
Continuous
 62
     7
370
    13
100
AcDbLine
 10
172.803396
 20
130.111748
 30
0.0
 11
177.983367
 21
135.291719
 31
0.0
  0
LINE
  5
1BE
330
B9
100
AcDbEntity
  8
ZUWAKU
  6
Continuous
 62
     7
370
    13
100
AcDbLine
 10
172.736898
 20
130.186672
 30
0.0
 11
177.983367
 21
135.43314
 31
0.0
  0
LINE
  5
1BF
330
B9
100
AcDbEntity
  8
ZUWAKU
  6
Continuous
 62
     7
370
    13
100
AcDbLine
 10
172.680253
 20
130.271448
 30
0.0
 11
177.983367
 21
135.574562
 31
0.0
  0
LINE
  5
1C0
330
B9
100
AcDbEntity
  8
ZUWAKU
  6
Continuous
 62
     7
370
    13
100
AcDbLine
 10
172.655025
 20
130.387641
 30
0.0
 11
177.983367
 21
135.715983
 31
0.0
  0
LINE
  5
1C1
330
B9
100
AcDbEntity
  8
ZUWAKU
  6
Continuous
 62
     7
370
    13
100
AcDbLine
 10
172.643367
 20
130.517404
 30
0.0
 11
177.983367
 21
135.857404
 31
0.0
  0
LINE
  5
1C2
330
B9
100
AcDbEntity
  8
ZUWAKU
  6
Continuous
 62
     7
370
    13
100
AcDbLine
 10
172.643367
 20
130.658826
 30
0.0
 11
177.983367
 21
135.998826
 31
0.0
  0
LINE
  5
1C3
330
B9
100
AcDbEntity
  8
ZUWAKU
  6
Continuous
 62
     7
370
    13
100
AcDbLine
 10
172.643367
 20
130.800247
 30
0.0
 11
177.983367
 21
136.140247
 31
0.0
  0
LINE
  5
1C4
330
B9
100
AcDbEntity
  8
ZUWAKU
  6
Continuous
 62
     7
370
    13
100
AcDbLine
 10
172.643367
 20
130.941669
 30
0.0
 11
177.983367
 21
136.281669
 31
0.0
  0
LINE
  5
1C5
330
B9
100
AcDbEntity
  8
ZUWAKU
  6
Continuous
 62
     7
370
    13
100
AcDbLine
 10
172.643367
 20
131.08309
 30
0.0
 11
177.983367
 21
136.42309
 31
0.0
  0
LINE
  5
1C6
330
B9
100
AcDbEntity
  8
ZUWAKU
  6
Continuous
 62
     7
370
    13
100
AcDbLine
 10
172.643367
 20
131.224511
 30
0.0
 11
177.983367
 21
136.564511
 31
0.0
  0
LINE
  5
1C7
330
B9
100
AcDbEntity
  8
ZUWAKU
  6
Continuous
 62
     7
370
    13
100
AcDbLine
 10
172.643367
 20
131.365933
 30
0.0
 11
177.983367
 21
136.705933
 31
0.0
  0
LINE
  5
1C8
330
B9
100
AcDbEntity
  8
ZUWAKU
  6
Continuous
 62
     7
370
    13
100
AcDbLine
 10
172.643367
 20
131.507354
 30
0.0
 11
177.983367
 21
136.847354
 31
0.0
  0
LINE
  5
1C9
330
B9
100
AcDbEntity
  8
ZUWAKU
  6
Continuous
 62
     7
370
    13
100
AcDbLine
 10
172.643367
 20
131.648775
 30
0.0
 11
177.983367
 21
136.988775
 31
0.0
  0
LINE
  5
1CA
330
B9
100
AcDbEntity
  8
ZUWAKU
  6
Continuous
 62
     7
370
    13
100
AcDbLine
 10
172.643367
 20
131.790197
 30
0.0
 11
177.983367
 21
137.130197
 31
0.0
  0
LINE
  5
1CB
330
B9
100
AcDbEntity
  8
ZUWAKU
  6
Continuous
 62
     7
370
    13
100
AcDbLine
 10
172.643367
 20
131.931618
 30
0.0
 11
177.983367
 21
137.271618
 31
0.0
  0
LINE
  5
1CC
330
B9
100
AcDbEntity
  8
ZUWAKU
  6
Continuous
 62
     7
370
    13
100
AcDbLine
 10
172.643367
 20
132.073039
 30
0.0
 11
177.971871
 21
137.401544
 31
0.0
  0
LINE
  5
1CD
330
B9
100
AcDbEntity
  8
ZUWAKU
  6
Continuous
 62
     7
370
    13
100
AcDbLine
 10
172.643367
 20
132.214461
 30
0.0
 11
177.946873
 21
137.517966
 31
0.0
  0
LINE
  5
1CE
330
B9
100
AcDbEntity
  8
ZUWAKU
  6
Continuous
 62
     7
370
    13
100
AcDbLine
 10
172.643367
 20
132.355882
 30
0.0
 11
177.890227
 21
137.602742
 31
0.0
  0
LINE
  5
1CF
330
B9
100
AcDbEntity
  8
ZUWAKU
  6
Continuous
 62
     7
370
    13
100
AcDbLine
 10
172.643367
 20
132.497303
 30
0.0
 11
177.823924
 21
137.67786
 31
0.0
  0
LINE
  5
1D0
330
B9
100
AcDbEntity
  8
ZUWAKU
  6
Continuous
 62
     7
370
    13
100
AcDbLine
 10
172.643367
 20
132.638725
 30
0.0
 11
177.739148
 21
137.734506
 31
0.0
  0
LINE
  5
1D1
330
B9
100
AcDbEntity
  8
ZUWAKU
  6
Continuous
 62
     7
370
    13
100
AcDbLine
 10
172.643367
 20
132.780146
 30
0.0
 11
177.633123
 21
137.769902
 31
0.0
  0
LINE
  5
1D2
330
B9
100
AcDbEntity
  8
ZUWAKU
  6
Continuous
 62
     7
370
    13
100
AcDbLine
 10
172.643367
 20
132.921568
 30
0.0
 11
177.510549
 21
137.78875
 31
0.0
  0
LINE
  5
1D3
330
B9
100
AcDbEntity
  8
ZUWAKU
  6
Continuous
 62
     7
370
    13
100
AcDbLine
 10
172.643367
 20
133.062989
 30
0.0
 11
174.051123
 21
134.470745
 31
0.0
  0
LINE
  5
1D4
330
B9
100
AcDbEntity
  8
ZUWAKU
  6
Continuous
 62
     7
370
    13
100
AcDbLine
 10
174.292622
 20
134.712244
 30
0.0
 11
177.369128
 21
137.78875
 31
0.0
  0
LINE
  5
1D5
330
B9
100
AcDbEntity
  8
ZUWAKU
  6
Continuous
 62
     7
370
    13
100
AcDbLine
 10
172.643367
 20
133.20441
 30
0.0
 11
173.908837
 21
134.46988
 31
0.0
  0
LINE
  5
1D6
330
B9
100
AcDbEntity
  8
ZUWAKU
  6
Continuous
 62
     7
370
    13
100
AcDbLine
 10
174.312117
 20
134.87316
 30
0.0
 11
177.227707
 21
137.78875
 31
0.0
  0
LINE
  5
1D7
330
B9
100
AcDbEntity
  8
ZUWAKU
  6
Continuous
 62
     7
370
    13
100
AcDbLine
 10
172.643367
 20
133.345832
 30
0.0
 11
173.802496
 21
134.50496
 31
0.0
  0
LINE
  5
1D8
330
B9
100
AcDbEntity
  8
ZUWAKU
  6
Continuous
 62
     7
370
    13
100
AcDbLine
 10
174.312117
 20
135.014582
 30
0.0
 11
177.086285
 21
137.78875
 31
0.0
  0
LINE
  5
1D9
330
B9
100
AcDbEntity
  8
ZUWAKU
  6
Continuous
 62
     7
370
    13
100
AcDbLine
 10
172.643367
 20
133.487253
 30
0.0
 11
173.731785
 21
134.575671
 31
0.0
  0
LINE
  5
1DA
330
B9
100
AcDbEntity
  8
ZUWAKU
  6
Continuous
 62
     7
370
    13
100
AcDbLine
 10
174.312117
 20
135.156003
 30
0.0
 11
176.944864
 21
137.78875
 31
0.0
  0
LINE
  5
1DB
330
B9
100
AcDbEntity
  8
ZUWAKU
  6
Continuous
 62
     7
370
    13
100
AcDbLine
 10
172.643367
 20
133.628674
 30
0.0
 11
173.677388
 21
134.662696
 31
0.0
  0
LINE
  5
1DC
330
B9
100
AcDbEntity
  8
ZUWAKU
  6
Continuous
 62
     7
370
    13
100
AcDbLine
 10
174.312117
 20
135.297424
 30
0.0
 11
176.803443
 21
137.78875
 31
0.0
  0
LINE
  5
1DD
330
B9
100
AcDbEntity
  8
ZUWAKU
  6
Continuous
 62
     7
370
    13
100
AcDbLine
 10
172.643367
 20
133.770096
 30
0.0
 11
173.647503
 21
134.774231
 31
0.0
  0
LINE
  5
1DE
330
B9
100
AcDbEntity
  8
ZUWAKU
  6
Continuous
 62
     7
370
    13
100
AcDbLine
 10
174.312117
 20
135.438846
 30
0.0
 11
176.662021
 21
137.78875
 31
0.0
  0
LINE
  5
1DF
330
B9
100
AcDbEntity
  8
ZUWAKU
  6
Continuous
 62
     7
370
    13
100
AcDbLine
 10
172.643367
 20
133.911517
 30
0.0
 11
173.644617
 21
134.912767
 31
0.0
  0
LINE
  5
1E0
330
B9
100
AcDbEntity
  8
ZUWAKU
  6
Continuous
 62
     7
370
    13
100
AcDbLine
 10
174.312117
 20
135.580267
 30
0.0
 11
176.5206
 21
137.78875
 31
0.0
  0
LINE
  5
1E1
330
B9
100
AcDbEntity
  8
ZUWAKU
  6
Continuous
 62
     7
370
    13
100
AcDbLine
 10
172.643367
 20
134.052938
 30
0.0
 11
173.644617
 21
135.054188
 31
0.0
  0
LINE
  5
1E2
330
B9
100
AcDbEntity
  8
ZUWAKU
  6
Continuous
 62
     7
370
    13
100
AcDbLine
 10
174.312117
 20
135.721688
 30
0.0
 11
176.379179
 21
137.78875
 31
0.0
  0
LINE
  5
1E3
330
B9
100
AcDbEntity
  8
ZUWAKU
  6
Continuous
 62
     7
370
    13
100
AcDbLine
 10
172.643367
 20
134.19436
 30
0.0
 11
173.644617
 21
135.19561
 31
0.0
  0
LINE
  5
1E4
330
B9
100
AcDbEntity
  8
ZUWAKU
  6
Continuous
 62
     7
370
    13
100
AcDbLine
 10
174.312117
 20
135.86311
 30
0.0
 11
176.237757
 21
137.78875
 31
0.0
  0
LINE
  5
1E5
330
B9
100
AcDbEntity
  8
ZUWAKU
  6
Continuous
 62
     7
370
    13
100
AcDbLine
 10
172.643367
 20
134.335781
 30
0.0
 11
173.644617
 21
135.337031
 31
0.0
  0
LINE
  5
1E6
330
B9
100
AcDbEntity
  8
ZUWAKU
  6
Continuous
 62
     7
370
    13
100
AcDbLine
 10
174.312117
 20
136.004531
 30
0.0
 11
176.096336
 21
137.78875
 31
0.0
  0
LINE
  5
1E7
330
B9
100
AcDbEntity
  8
ZUWAKU
  6
Continuous
 62
     7
370
    13
100
AcDbLine
 10
172.643367
 20
134.477202
 30
0.0
 11
173.644617
 21
135.478452
 31
0.0
  0
LINE
  5
1E8
330
B9
100
AcDbEntity
  8
ZUWAKU
  6
Continuous
 62
     7
370
    13
100
AcDbLine
 10
174.312117
 20
136.145952
 30
0.0
 11
175.954915
 21
137.78875
 31
0.0
  0
LINE
  5
1E9
330
B9
100
AcDbEntity
  8
ZUWAKU
  6
Continuous
 62
     7
370
    13
100
AcDbLine
 10
172.643367
 20
134.618624
 30
0.0
 11
173.644617
 21
135.619874
 31
0.0
  0
LINE
  5
1EA
330
B9
100
AcDbEntity
  8
ZUWAKU
  6
Continuous
 62
     7
370
    13
100
AcDbLine
 10
174.312117
 20
136.287374
 30
0.0
 11
175.813493
 21
137.78875
 31
0.0
  0
LINE
  5
1EB
330
B9
100
AcDbEntity
  8
ZUWAKU
  6
Continuous
 62
     7
370
    13
100
AcDbLine
 10
172.643367
 20
134.760045
 30
0.0
 11
173.644617
 21
135.761295
 31
0.0
  0
LINE
  5
1EC
330
B9
100
AcDbEntity
  8
ZUWAKU
  6
Continuous
 62
     7
370
    13
100
AcDbLine
 10
174.293881
 20
136.410559
 30
0.0
 11
175.672072
 21
137.78875
 31
0.0
  0
LINE
  5
1ED
330
B9
100
AcDbEntity
  8
ZUWAKU
  6
Continuous
 62
     7
370
    13
100
AcDbLine
 10
172.643367
 20
134.901467
 30
0.0
 11
173.644617
 21
135.902717
 31
0.0
  0
LINE
  5
1EE
330
B9
100
AcDbEntity
  8
ZUWAKU
  6
Continuous
 62
     7
370
    13
100
AcDbLine
 10
174.259339
 20
136.517439
 30
0.0
 11
175.53065
 21
137.78875
 31
0.0
  0
LINE
  5
1EF
330
B9
100
AcDbEntity
  8
ZUWAKU
  6
Continuous
 62
     7
370
    13
100
AcDbLine
 10
172.643367
 20
135.042888
 30
0.0
 11
173.644617
 21
136.044138
 31
0.0
  0
LINE
  5
1F0
330
B9
100
AcDbEntity
  8
ZUWAKU
  6
Continuous
 62
     7
370
    13
100
AcDbLine
 10
174.188629
 20
136.588149
 30
0.0
 11
175.389229
 21
137.78875
 31
0.0
  0
LINE
  5
1F1
330
B9
100
AcDbEntity
  8
ZUWAKU
  6
Continuous
 62
     7
370
    13
100
AcDbLine
 10
172.643367
 20
135.184309
 30
0.0
 11
173.644617
 21
136.185559
 31
0.0
  0
LINE
  5
1F2
330
B9
100
AcDbEntity
  8
ZUWAKU
  6
Continuous
 62
     7
370
    13
100
AcDbLine
 10
174.102142
 20
136.643085
 30
0.0
 11
175.247808
 21
137.78875
 31
0.0
  0
LINE
  5
1F3
330
B9
100
AcDbEntity
  8
ZUWAKU
  6
Continuous
 62
     7
370
    13
100
AcDbLine
 10
172.643367
 20
135.325731
 30
0.0
 11
173.644617
 21
136.326981
 31
0.0
  0
LINE
  5
1F4
330
B9
100
AcDbEntity
  8
ZUWAKU
  6
Continuous
 62
     7
370
    13
100
AcDbLine
 10
173.990607
 20
136.67297
 30
0.0
 11
175.106386
 21
137.78875
 31
0.0
  0
LINE
  5
1F5
330
B9
100
AcDbEntity
  8
ZUWAKU
  6
Continuous
 62
     7
370
    13
100
AcDbLine
 10
172.643367
 20
135.467152
 30
0.0
 11
174.964965
 21
137.78875
 31
0.0
  0
LINE
  5
1F6
330
B9
100
AcDbEntity
  8
ZUWAKU
  6
Continuous
 62
     7
370
    13
100
AcDbLine
 10
172.643367
 20
135.608573
 30
0.0
 11
174.823544
 21
137.78875
 31
0.0
  0
LINE
  5
1F7
330
B9
100
AcDbEntity
  8
ZUWAKU
  6
Continuous
 62
     7
370
    13
100
AcDbLine
 10
172.643367
 20
135.749995
 30
0.0
 11
174.682122
 21
137.78875
 31
0.0
  0
LINE
  5
1F8
330
B9
100
AcDbEntity
  8
ZUWAKU
  6
Continuous
 62
     7
370
    13
100
AcDbLine
 10
172.643367
 20
135.891416
 30
0.0
 11
174.540701
 21
137.78875
 31
0.0
  0
LINE
  5
1F9
330
B9
100
AcDbEntity
  8
ZUWAKU
  6
Continuous
 62
     7
370
    13
100
AcDbLine
 10
172.643367
 20
136.032837
 30
0.0
 11
174.39928
 21
137.78875
 31
0.0
  0
LINE
  5
1FA
330
B9
100
AcDbEntity
  8
ZUWAKU
  6
Continuous
 62
     7
370
    13
100
AcDbLine
 10
172.643367
 20
136.174259
 30
0.0
 11
174.257858
 21
137.78875
 31
0.0
  0
LINE
  5
1FB
330
B9
100
AcDbEntity
  8
ZUWAKU
  6
Continuous
 62
     7
370
    13
100
AcDbLine
 10
172.643367
 20
136.31568
 30
0.0
 11
174.116437
 21
137.78875
 31
0.0
  0
LINE
  5
1FC
330
B9
100
AcDbEntity
  8
ZUWAKU
  6
Continuous
 62
     7
370
    13
100
AcDbLine
 10
172.643367
 20
136.457101
 30
0.0
 11
173.975016
 21
137.78875
 31
0.0
  0
LINE
  5
1FD
330
B9
100
AcDbEntity
  8
ZUWAKU
  6
Continuous
 62
     7
370
    13
100
AcDbLine
 10
172.643367
 20
136.598523
 30
0.0
 11
173.833594
 21
137.78875
 31
0.0
  0
LINE
  5
1FE
330
B9
100
AcDbEntity
  8
ZUWAKU
  6
Continuous
 62
     7
370
    13
100
AcDbLine
 10
172.643367
 20
136.739944
 30
0.0
 11
173.692173
 21
137.78875
 31
0.0
  0
LINE
  5
1FF
330
B9
100
AcDbEntity
  8
ZUWAKU
  6
Continuous
 62
     7
370
    13
100
AcDbLine
 10
172.643367
 20
136.881365
 30
0.0
 11
173.550752
 21
137.78875
 31
0.0
  0
LINE
  5
200
330
B9
100
AcDbEntity
  8
ZUWAKU
  6
Continuous
 62
     7
370
    13
100
AcDbLine
 10
172.643367
 20
137.022787
 30
0.0
 11
173.40933
 21
137.78875
 31
0.0
  0
LINE
  5
201
330
B9
100
AcDbEntity
  8
ZUWAKU
  6
Continuous
 62
     7
370
    13
100
AcDbLine
 10
172.643367
 20
137.164208
 30
0.0
 11
173.267909
 21
137.78875
 31
0.0
  0
LINE
  5
202
330
B9
100
AcDbEntity
  8
ZUWAKU
  6
Continuous
 62
     7
370
    13
100
AcDbLine
 10
172.643367
 20
137.30563
 30
0.0
 11
173.126487
 21
137.78875
 31
0.0
  0
LINE
  5
203
330
B9
100
AcDbEntity
  8
ZUWAKU
  6
Continuous
 62
     7
370
    13
100
AcDbLine
 10
172.669017
 20
137.472701
 30
0.0
 11
172.959416
 21
137.7631
 31
0.0
  0
LINE
  5
204
330
B9
100
AcDbEntity
  8
ZUWAKU
  6
Continuous
 62
     7
370
    13
100
AcDbLine
 10
177.972714
 20
137.397307
 30
0.0
 11
177.591924
 21
137.778097
 31
0.0
  0
LINE
  5
205
330
B9
100
AcDbEntity
  8
ZUWAKU
  6
Continuous
 62
     7
370
    13
100
AcDbLine
 10
177.983367
 20
137.245232
 30
0.0
 11
177.439849
 21
137.78875
 31
0.0
  0
LINE
  5
206
330
B9
100
AcDbEntity
  8
ZUWAKU
  6
Continuous
 62
     7
370
    13
100
AcDbLine
 10
177.983367
 20
137.103811
 30
0.0
 11
177.298428
 21
137.78875
 31
0.0
  0
LINE
  5
207
330
B9
100
AcDbEntity
  8
ZUWAKU
  6
Continuous
 62
     7
370
    13
100
AcDbLine
 10
177.983367
 20
136.96239
 30
0.0
 11
177.157007
 21
137.78875
 31
0.0
  0
LINE
  5
208
330
B9
100
AcDbEntity
  8
ZUWAKU
  6
Continuous
 62
     7
370
    13
100
AcDbLine
 10
177.983367
 20
136.820968
 30
0.0
 11
177.015585
 21
137.78875
 31
0.0
  0
LINE
  5
209
330
B9
100
AcDbEntity
  8
ZUWAKU
  6
Continuous
 62
     7
370
    13
100
AcDbLine
 10
177.983367
 20
136.679547
 30
0.0
 11
176.874164
 21
137.78875
 31
0.0
  0
LINE
  5
20A
330
B9
100
AcDbEntity
  8
ZUWAKU
  6
Continuous
 62
     7
370
    13
100
AcDbLine
 10
177.983367
 20
136.538126
 30
0.0
 11
176.732743
 21
137.78875
 31
0.0
  0
LINE
  5
20B
330
B9
100
AcDbEntity
  8
ZUWAKU
  6
Continuous
 62
     7
370
    13
100
AcDbLine
 10
177.983367
 20
136.396704
 30
0.0
 11
176.591321
 21
137.78875
 31
0.0
  0
LINE
  5
20C
330
B9
100
AcDbEntity
  8
ZUWAKU
  6
Continuous
 62
     7
370
    13
100
AcDbLine
 10
177.983367
 20
136.255283
 30
0.0
 11
176.4499
 21
137.78875
 31
0.0
  0
LINE
  5
20D
330
B9
100
AcDbEntity
  8
ZUWAKU
  6
Continuous
 62
     7
370
    13
100
AcDbLine
 10
177.983367
 20
136.113861
 30
0.0
 11
176.308478
 21
137.78875
 31
0.0
  0
LINE
  5
20E
330
B9
100
AcDbEntity
  8
ZUWAKU
  6
Continuous
 62
     7
370
    13
100
AcDbLine
 10
177.983367
 20
135.97244
 30
0.0
 11
176.167057
 21
137.78875
 31
0.0
  0
LINE
  5
20F
330
B9
100
AcDbEntity
  8
ZUWAKU
  6
Continuous
 62
     7
370
    13
100
AcDbLine
 10
177.983367
 20
135.831019
 30
0.0
 11
176.025636
 21
137.78875
 31
0.0
  0
LINE
  5
210
330
B9
100
AcDbEntity
  8
ZUWAKU
  6
Continuous
 62
     7
370
    13
100
AcDbLine
 10
177.983367
 20
135.689597
 30
0.0
 11
175.884214
 21
137.78875
 31
0.0
  0
LINE
  5
211
330
B9
100
AcDbEntity
  8
ZUWAKU
  6
Continuous
 62
     7
370
    13
100
AcDbLine
 10
177.983367
 20
135.548176
 30
0.0
 11
175.742793
 21
137.78875
 31
0.0
  0
LINE
  5
212
330
B9
100
AcDbEntity
  8
ZUWAKU
  6
Continuous
 62
     7
370
    13
100
AcDbLine
 10
177.983367
 20
135.406755
 30
0.0
 11
175.601372
 21
137.78875
 31
0.0
  0
LINE
  5
213
330
B9
100
AcDbEntity
  8
ZUWAKU
  6
Continuous
 62
     7
370
    13
100
AcDbLine
 10
177.983367
 20
135.265333
 30
0.0
 11
175.45995
 21
137.78875
 31
0.0
  0
LINE
  5
214
330
B9
100
AcDbEntity
  8
ZUWAKU
  6
Continuous
 62
     7
370
    13
100
AcDbLine
 10
177.983367
 20
135.123912
 30
0.0
 11
175.318529
 21
137.78875
 31
0.0
  0
LINE
  5
215
330
B9
100
AcDbEntity
  8
ZUWAKU
  6
Continuous
 62
     7
370
    13
100
AcDbLine
 10
177.983367
 20
134.982491
 30
0.0
 11
175.177108
 21
137.78875
 31
0.0
  0
LINE
  5
216
330
B9
100
AcDbEntity
  8
ZUWAKU
  6
Continuous
 62
     7
370
    13
100
AcDbLine
 10
177.983367
 20
134.841069
 30
0.0
 11
175.035686
 21
137.78875
 31
0.0
  0
LINE
  5
217
330
B9
100
AcDbEntity
  8
ZUWAKU
  6
Continuous
 62
     7
370
    13
100
AcDbLine
 10
177.983367
 20
134.699648
 30
0.0
 11
174.894265
 21
137.78875
 31
0.0
  0
LINE
  5
218
330
B9
100
AcDbEntity
  8
ZUWAKU
  6
Continuous
 62
     7
370
    13
100
AcDbLine
 10
177.983367
 20
134.558227
 30
0.0
 11
174.752844
 21
137.78875
 31
0.0
  0
LINE
  5
219
330
B9
100
AcDbEntity
  8
ZUWAKU
  6
Continuous
 62
     7
370
    13
100
AcDbLine
 10
177.983367
 20
134.416805
 30
0.0
 11
174.611422
 21
137.78875
 31
0.0
  0
LINE
  5
21A
330
B9
100
AcDbEntity
  8
ZUWAKU
  6
Continuous
 62
     7
370
    13
100
AcDbLine
 10
177.983367
 20
134.275384
 30
0.0
 11
174.470001
 21
137.78875
 31
0.0
  0
LINE
  5
21B
330
B9
100
AcDbEntity
  8
ZUWAKU
  6
Continuous
 62
     7
370
    13
100
AcDbLine
 10
177.983367
 20
134.133962
 30
0.0
 11
174.328579
 21
137.78875
 31
0.0
  0
LINE
  5
21C
330
B9
100
AcDbEntity
  8
ZUWAKU
  6
Continuous
 62
     7
370
    13
100
AcDbLine
 10
177.983367
 20
133.992541
 30
0.0
 11
174.187158
 21
137.78875
 31
0.0
  0
LINE
  5
21D
330
B9
100
AcDbEntity
  8
ZUWAKU
  6
Continuous
 62
     7
370
    13
100
AcDbLine
 10
177.983367
 20
133.85112
 30
0.0
 11
174.045737
 21
137.78875
 31
0.0
  0
LINE
  5
21E
330
B9
100
AcDbEntity
  8
ZUWAKU
  6
Continuous
 62
     7
370
    13
100
AcDbLine
 10
177.983367
 20
133.709698
 30
0.0
 11
173.904315
 21
137.78875
 31
0.0
  0
LINE
  5
21F
330
B9
100
AcDbEntity
  8
ZUWAKU
  6
Continuous
 62
     7
370
    13
100
AcDbLine
 10
177.983367
 20
133.568277
 30
0.0
 11
173.762894
 21
137.78875
 31
0.0
  0
LINE
  5
220
330
B9
100
AcDbEntity
  8
ZUWAKU
  6
Continuous
 62
     7
370
    13
100
AcDbLine
 10
177.983367
 20
133.426856
 30
0.0
 11
173.621473
 21
137.78875
 31
0.0
  0
LINE
  5
221
330
B9
100
AcDbEntity
  8
ZUWAKU
  6
Continuous
 62
     7
370
    13
100
AcDbLine
 10
177.983367
 20
133.285434
 30
0.0
 11
173.480051
 21
137.78875
 31
0.0
  0
LINE
  5
222
330
B9
100
AcDbEntity
  8
ZUWAKU
  6
Continuous
 62
     7
370
    13
100
AcDbLine
 10
177.983367
 20
133.144013
 30
0.0
 11
173.33863
 21
137.78875
 31
0.0
  0
LINE
  5
223
330
B9
100
AcDbEntity
  8
ZUWAKU
  6
Continuous
 62
     7
370
    13
100
AcDbLine
 10
177.983367
 20
133.002592
 30
0.0
 11
173.197209
 21
137.78875
 31
0.0
  0
LINE
  5
224
330
B9
100
AcDbEntity
  8
ZUWAKU
  6
Continuous
 62
     7
370
    13
100
AcDbLine
 10
177.983367
 20
132.86117
 30
0.0
 11
173.061193
 21
137.783345
 31
0.0
  0
LINE
  5
225
330
B9
100
AcDbEntity
  8
ZUWAKU
  6
Continuous
 62
     7
370
    13
100
AcDbLine
 10
177.983367
 20
132.719749
 30
0.0
 11
174.294365
 21
136.408751
 31
0.0
  0
LINE
  5
226
330
B9
100
AcDbEntity
  8
ZUWAKU
  6
Continuous
 62
     7
370
    13
100
AcDbLine
 10
174.044618
 20
136.658498
 30
0.0
 11
172.943235
 21
137.759881
 31
0.0
  0
LINE
  5
227
330
B9
100
AcDbEntity
  8
ZUWAKU
  6
Continuous
 62
     7
370
    13
100
AcDbLine
 10
177.983367
 20
132.578328
 30
0.0
 11
174.312117
 21
136.249578
 31
0.0
  0
LINE
  5
228
330
B9
100
AcDbEntity
  8
ZUWAKU
  6
Continuous
 62
     7
370
    13
100
AcDbLine
 10
173.905081
 20
136.656613
 30
0.0
 11
172.851381
 21
137.710314
 31
0.0
  0
LINE
  5
229
330
B9
100
AcDbEntity
  8
ZUWAKU
  6
Continuous
 62
     7
370
    13
100
AcDbLine
 10
177.983367
 20
132.436906
 30
0.0
 11
174.312117
 21
136.108156
 31
0.0
  0
LINE
  5
22A
330
B9
100
AcDbEntity
  8
ZUWAKU
  6
Continuous
 62
     7
370
    13
100
AcDbLine
 10
173.800115
 20
136.620159
 30
0.0
 11
172.768961
 21
137.651313
 31
0.0
  0
LINE
  5
22B
330
B9
100
AcDbEntity
  8
ZUWAKU
  6
Continuous
 62
     7
370
    13
100
AcDbLine
 10
177.983367
 20
132.295485
 30
0.0
 11
174.312117
 21
135.966735
 31
0.0
  0
LINE
  5
22C
330
B9
100
AcDbEntity
  8
ZUWAKU
  6
Continuous
 62
     7
370
    13
100
AcDbLine
 10
173.729404
 20
136.549448
 30
0.0
 11
172.712315
 21
137.566537
 31
0.0
  0
LINE
  5
22D
330
B9
100
AcDbEntity
  8
ZUWAKU
  6
Continuous
 62
     7
370
    13
100
AcDbLine
 10
177.983367
 20
132.154063
 30
0.0
 11
174.312117
 21
135.825313
 31
0.0
  0
LINE
  5
22E
330
B9
100
AcDbEntity
  8
ZUWAKU
  6
Continuous
 62
     7
370
    13
100
AcDbLine
 10
173.676382
 20
136.461049
 30
0.0
 11
172.668306
 21
137.469125
 31
0.0
  0
LINE
  5
22F
330
B9
100
AcDbEntity
  8
ZUWAKU
  6
Continuous
 62
     7
370
    13
100
AcDbLine
 10
177.983367
 20
132.012642
 30
0.0
 11
174.312117
 21
135.683892
 31
0.0
  0
LINE
  5
230
330
B9
100
AcDbEntity
  8
ZUWAKU
  6
Continuous
 62
     7
370
    13
100
AcDbLine
 10
173.646496
 20
136.349513
 30
0.0
 11
172.644842
 21
137.351167
 31
0.0
  0
LINE
  5
231
330
B9
100
AcDbEntity
  8
ZUWAKU
  6
Continuous
 62
     7
370
    13
100
AcDbLine
 10
177.983367
 20
131.871221
 30
0.0
 11
174.312117
 21
135.542471
 31
0.0
  0
LINE
  5
232
330
B9
100
AcDbEntity
  8
ZUWAKU
  6
Continuous
 62
     7
370
    13
100
AcDbLine
 10
173.644617
 20
136.209971
 30
0.0
 11
172.643367
 21
137.211221
 31
0.0
  0
LINE
  5
233
330
B9
100
AcDbEntity
  8
ZUWAKU
  6
Continuous
 62
     7
370
    13
100
AcDbLine
 10
177.983367
 20
131.729799
 30
0.0
 11
174.312117
 21
135.401049
 31
0.0
  0
LINE
  5
234
330
B9
100
AcDbEntity
  8
ZUWAKU
  6
Continuous
 62
     7
370
    13
100
AcDbLine
 10
173.644617
 20
136.068549
 30
0.0
 11
172.643367
 21
137.069799
 31
0.0
  0
LINE
  5
235
330
B9
100
AcDbEntity
  8
ZUWAKU
  6
Continuous
 62
     7
370
    13
100
AcDbLine
 10
177.983367
 20
131.588378
 30
0.0
 11
174.312117
 21
135.259628
 31
0.0
  0
LINE
  5
236
330
B9
100
AcDbEntity
  8
ZUWAKU
  6
Continuous
 62
     7
370
    13
100
AcDbLine
 10
173.644617
 20
135.927128
 30
0.0
 11
172.643367
 21
136.928378
 31
0.0
  0
LINE
  5
237
330
B9
100
AcDbEntity
  8
ZUWAKU
  6
Continuous
 62
     7
370
    13
100
AcDbLine
 10
177.983367
 20
131.446957
 30
0.0
 11
174.312117
 21
135.118207
 31
0.0
  0
LINE
  5
238
330
B9
100
AcDbEntity
  8
ZUWAKU
  6
Continuous
 62
     7
370
    13
100
AcDbLine
 10
173.644617
 20
135.785707
 30
0.0
 11
172.643367
 21
136.786957
 31
0.0
  0
LINE
  5
239
330
B9
100
AcDbEntity
  8
ZUWAKU
  6
Continuous
 62
     7
370
    13
100
AcDbLine
 10
177.983367
 20
131.305535
 30
0.0
 11
174.312117
 21
134.976785
 31
0.0
  0
LINE
  5
23A
330
B9
100
AcDbEntity
  8
ZUWAKU
  6
Continuous
 62
     7
370
    13
100
AcDbLine
 10
173.644617
 20
135.644285
 30
0.0
 11
172.643367
 21
136.645535
 31
0.0
  0
LINE
  5
23B
330
B9
100
AcDbEntity
  8
ZUWAKU
  6
Continuous
 62
     7
370
    13
100
AcDbLine
 10
177.983367
 20
131.164114
 30
0.0
 11
174.312117
 21
134.835364
 31
0.0
  0
LINE
  5
23C
330
B9
100
AcDbEntity
  8
ZUWAKU
  6
Continuous
 62
     7
370
    13
100
AcDbLine
 10
173.644617
 20
135.502864
 30
0.0
 11
172.643367
 21
136.504114
 31
0.0
  0
LINE
  5
23D
330
B9
100
AcDbEntity
  8
ZUWAKU
  6
Continuous
 62
     7
370
    13
100
AcDbLine
 10
177.983367
 20
131.022693
 30
0.0
 11
174.292874
 21
134.713185
 31
0.0
  0
LINE
  5
23E
330
B9
100
AcDbEntity
  8
ZUWAKU
  6
Continuous
 62
     7
370
    13
100
AcDbLine
 10
173.644617
 20
135.361443
 30
0.0
 11
172.643367
 21
136.362693
 31
0.0
  0
LINE
  5
23F
330
B9
100
AcDbEntity
  8
ZUWAKU
  6
Continuous
 62
     7
370
    13
100
AcDbLine
 10
177.983367
 20
130.881271
 30
0.0
 11
174.256958
 21
134.60768
 31
0.0
  0
LINE
  5
240
330
B9
100
AcDbEntity
  8
ZUWAKU
  6
Continuous
 62
     7
370
    13
100
AcDbLine
 10
173.644617
 20
135.220021
 30
0.0
 11
172.643367
 21
136.221271
 31
0.0
  0
LINE
  5
241
330
B9
100
AcDbEntity
  8
ZUWAKU
  6
Continuous
 62
     7
370
    13
100
AcDbLine
 10
177.983367
 20
130.73985
 30
0.0
 11
174.186247
 21
134.536969
 31
0.0
  0
LINE
  5
242
330
B9
100
AcDbEntity
  8
ZUWAKU
  6
Continuous
 62
     7
370
    13
100
AcDbLine
 10
173.644617
 20
135.0786
 30
0.0
 11
172.643367
 21
136.07985
 31
0.0
  0
LINE
  5
243
330
B9
100
AcDbEntity
  8
ZUWAKU
  6
Continuous
 62
     7
370
    13
100
AcDbLine
 10
177.983367
 20
130.598429
 30
0.0
 11
174.098386
 21
134.483409
 31
0.0
  0
LINE
  5
244
330
B9
100
AcDbEntity
  8
ZUWAKU
  6
Continuous
 62
     7
370
    13
100
AcDbLine
 10
173.644617
 20
134.937179
 30
0.0
 11
172.643367
 21
135.938429
 31
0.0
  0
LINE
  5
245
330
B9
100
AcDbEntity
  8
ZUWAKU
  6
Continuous
 62
     7
370
    13
100
AcDbLine
 10
177.983367
 20
130.457007
 30
0.0
 11
173.986851
 21
134.453523
 31
0.0
  0
LINE
  5
246
330
B9
100
AcDbEntity
  8
ZUWAKU
  6
Continuous
 62
     7
370
    13
100
AcDbLine
 10
173.644617
 20
134.795757
 30
0.0
 11
172.643367
 21
135.797007
 31
0.0
  0
LINE
  5
247
330
B9
100
AcDbEntity
  8
ZUWAKU
  6
Continuous
 62
     7
370
    13
100
AcDbLine
 10
177.961688
 20
130.337264
 30
0.0
 11
172.643367
 21
135.655586
 31
0.0
  0
LINE
  5
248
330
B9
100
AcDbEntity
  8
ZUWAKU
  6
Continuous
 62
     7
370
    13
100
AcDbLine
 10
177.922289
 20
130.235242
 30
0.0
 11
172.643367
 21
135.514165
 31
0.0
  0
LINE
  5
249
330
B9
100
AcDbEntity
  8
ZUWAKU
  6
Continuous
 62
     7
370
    13
100
AcDbLine
 10
177.865644
 20
130.150466
 30
0.0
 11
172.643367
 21
135.372743
 31
0.0
  0
LINE
  5
24A
330
B9
100
AcDbEntity
  8
ZUWAKU
  6
Continuous
 62
     7
370
    13
100
AcDbLine
 10
177.787132
 20
130.087556
 30
0.0
 11
172.643367
 21
135.231322
 31
0.0
  0
LINE
  5
24B
330
B9
100
AcDbEntity
  8
ZUWAKU
  6
Continuous
 62
     7
370
    13
100
AcDbLine
 10
177.699889
 20
130.033379
 30
0.0
 11
172.643367
 21
135.0899
 31
0.0
  0
LINE
  5
24C
330
B9
100
AcDbEntity
  8
ZUWAKU
  6
Continuous
 62
     7
370
    13
100
AcDbLine
 10
177.581931
 20
130.009915
 30
0.0
 11
172.643367
 21
134.948479
 31
0.0
  0
LINE
  5
24D
330
B9
100
AcDbEntity
  8
ZUWAKU
  6
Continuous
 62
     7
370
    13
100
AcDbLine
 10
177.449175
 20
130.00125
 30
0.0
 11
172.643367
 21
134.807058
 31
0.0
  0
LINE
  5
24E
330
B9
100
AcDbEntity
  8
ZUWAKU
  6
Continuous
 62
     7
370
    13
100
AcDbLine
 10
177.307753
 20
130.00125
 30
0.0
 11
172.643367
 21
134.665636
 31
0.0
  0
LINE
  5
24F
330
B9
100
AcDbEntity
  8
ZUWAKU
  6
Continuous
 62
     7
370
    13
100
AcDbLine
 10
177.166332
 20
130.00125
 30
0.0
 11
172.643367
 21
134.524215
 31
0.0
  0
LINE
  5
250
330
B9
100
AcDbEntity
  8
ZUWAKU
  6
Continuous
 62
     7
370
    13
100
AcDbLine
 10
177.024911
 20
130.00125
 30
0.0
 11
172.643367
 21
134.382794
 31
0.0
  0
LINE
  5
251
330
B9
100
AcDbEntity
  8
ZUWAKU
  6
Continuous
 62
     7
370
    13
100
AcDbLine
 10
176.883489
 20
130.00125
 30
0.0
 11
172.643367
 21
134.241372
 31
0.0
  0
LINE
  5
252
330
B9
100
AcDbEntity
  8
ZUWAKU
  6
Continuous
 62
     7
370
    13
100
AcDbLine
 10
176.742068
 20
130.00125
 30
0.0
 11
172.643367
 21
134.099951
 31
0.0
  0
LINE
  5
253
330
B9
100
AcDbEntity
  8
ZUWAKU
  6
Continuous
 62
     7
370
    13
100
AcDbLine
 10
176.600647
 20
130.00125
 30
0.0
 11
172.643367
 21
133.95853
 31
0.0
  0
LINE
  5
254
330
B9
100
AcDbEntity
  8
ZUWAKU
  6
Continuous
 62
     7
370
    13
100
AcDbLine
 10
176.459225
 20
130.00125
 30
0.0
 11
172.643367
 21
133.817108
 31
0.0
  0
LINE
  5
255
330
B9
100
AcDbEntity
  8
ZUWAKU
  6
Continuous
 62
     7
370
    13
100
AcDbLine
 10
176.317804
 20
130.00125
 30
0.0
 11
172.643367
 21
133.675687
 31
0.0
  0
LINE
  5
256
330
B9
100
AcDbEntity
  8
ZUWAKU
  6
Continuous
 62
     7
370
    13
100
AcDbLine
 10
176.176383
 20
130.00125
 30
0.0
 11
172.643367
 21
133.534266
 31
0.0
  0
LINE
  5
257
330
B9
100
AcDbEntity
  8
ZUWAKU
  6
Continuous
 62
     7
370
    13
100
AcDbLine
 10
176.034961
 20
130.00125
 30
0.0
 11
172.643367
 21
133.392844
 31
0.0
  0
LINE
  5
258
330
B9
100
AcDbEntity
  8
ZUWAKU
  6
Continuous
 62
     7
370
    13
100
AcDbLine
 10
175.89354
 20
130.00125
 30
0.0
 11
172.643367
 21
133.251423
 31
0.0
  0
LINE
  5
259
330
B9
100
AcDbEntity
  8
ZUWAKU
  6
Continuous
 62
     7
370
    13
100
AcDbLine
 10
175.752118
 20
130.00125
 30
0.0
 11
172.643367
 21
133.110001
 31
0.0
  0
LINE
  5
25A
330
B9
100
AcDbEntity
  8
ZUWAKU
  6
Continuous
 62
     7
370
    13
100
AcDbLine
 10
175.610697
 20
130.00125
 30
0.0
 11
172.643367
 21
132.96858
 31
0.0
  0
LINE
  5
25B
330
B9
100
AcDbEntity
  8
ZUWAKU
  6
Continuous
 62
     7
370
    13
100
AcDbLine
 10
175.469276
 20
130.00125
 30
0.0
 11
172.643367
 21
132.827159
 31
0.0
  0
LINE
  5
25C
330
B9
100
AcDbEntity
  8
ZUWAKU
  6
Continuous
 62
     7
370
    13
100
AcDbLine
 10
175.327854
 20
130.00125
 30
0.0
 11
172.643367
 21
132.685737
 31
0.0
  0
LINE
  5
25D
330
B9
100
AcDbEntity
  8
ZUWAKU
  6
Continuous
 62
     7
370
    13
100
AcDbLine
 10
175.186433
 20
130.00125
 30
0.0
 11
172.643367
 21
132.544316
 31
0.0
  0
LINE
  5
25E
330
B9
100
AcDbEntity
  8
ZUWAKU
  6
Continuous
 62
     7
370
    13
100
AcDbLine
 10
175.045012
 20
130.00125
 30
0.0
 11
172.643367
 21
132.402895
 31
0.0
  0
LINE
  5
25F
330
B9
100
AcDbEntity
  8
ZUWAKU
  6
Continuous
 62
     7
370
    13
100
AcDbLine
 10
174.90359
 20
130.00125
 30
0.0
 11
172.643367
 21
132.261473
 31
0.0
  0
LINE
  5
260
330
B9
100
AcDbEntity
  8
ZUWAKU
  6
Continuous
 62
     7
370
    13
100
AcDbLine
 10
174.762169
 20
130.00125
 30
0.0
 11
172.643367
 21
132.120052
 31
0.0
  0
LINE
  5
261
330
B9
100
AcDbEntity
  8
ZUWAKU
  6
Continuous
 62
     7
370
    13
100
AcDbLine
 10
174.620748
 20
130.00125
 30
0.0
 11
172.643367
 21
131.978631
 31
0.0
  0
LINE
  5
262
330
B9
100
AcDbEntity
  8
ZUWAKU
  6
Continuous
 62
     7
370
    13
100
AcDbLine
 10
174.479326
 20
130.00125
 30
0.0
 11
172.643367
 21
131.837209
 31
0.0
  0
LINE
  5
263
330
B9
100
AcDbEntity
  8
ZUWAKU
  6
Continuous
 62
     7
370
    13
100
AcDbLine
 10
174.337905
 20
130.00125
 30
0.0
 11
172.643367
 21
131.695788
 31
0.0
  0
LINE
  5
264
330
B9
100
AcDbEntity
  8
ZUWAKU
  6
Continuous
 62
     7
370
    13
100
AcDbLine
 10
174.196484
 20
130.00125
 30
0.0
 11
172.643367
 21
131.554367
 31
0.0
  0
LINE
  5
265
330
B9
100
AcDbEntity
  8
ZUWAKU
  6
Continuous
 62
     7
370
    13
100
AcDbLine
 10
174.055062
 20
130.00125
 30
0.0
 11
172.643367
 21
131.412945
 31
0.0
  0
LINE
  5
266
330
B9
100
AcDbEntity
  8
ZUWAKU
  6
Continuous
 62
     7
370
    13
100
AcDbLine
 10
173.913641
 20
130.00125
 30
0.0
 11
172.643367
 21
131.271524
 31
0.0
  0
LINE
  5
267
330
B9
100
AcDbEntity
  8
ZUWAKU
  6
Continuous
 62
     7
370
    13
100
AcDbLine
 10
173.772219
 20
130.00125
 30
0.0
 11
172.643367
 21
131.130102
 31
0.0
  0
LINE
  5
268
330
B9
100
AcDbEntity
  8
ZUWAKU
  6
Continuous
 62
     7
370
    13
100
AcDbLine
 10
173.630798
 20
130.00125
 30
0.0
 11
172.643367
 21
130.988681
 31
0.0
  0
LINE
  5
269
330
B9
100
AcDbEntity
  8
ZUWAKU
  6
Continuous
 62
     7
370
    13
100
AcDbLine
 10
173.489377
 20
130.00125
 30
0.0
 11
172.643367
 21
130.84726
 31
0.0
  0
LINE
  5
26A
330
B9
100
AcDbEntity
  8
ZUWAKU
  6
Continuous
 62
     7
370
    13
100
AcDbLine
 10
173.347955
 20
130.00125
 30
0.0
 11
172.643367
 21
130.705838
 31
0.0
  0
LINE
  5
26B
330
B9
100
AcDbEntity
  8
ZUWAKU
  6
Continuous
 62
     7
370
    13
100
AcDbLine
 10
173.206534
 20
130.00125
 30
0.0
 11
172.643367
 21
130.564417
 31
0.0
  0
LINE
  5
26C
330
B9
100
AcDbEntity
  8
ZUWAKU
  6
Continuous
 62
     7
370
    13
100
AcDbLine
 10
173.059339
 20
130.007024
 30
0.0
 11
172.649141
 21
130.417222
 31
0.0
  0
LINE
  5
26D
330
B9
100
AcDbEntity
  8
ZUWAKU
  6
Continuous
 62
     7
370
    13
100
AcDbLine
 10
172.832921
 20
130.09202
 30
0.0
 11
172.734137
 21
130.190804
 31
0.0
  0
ENDBLK
  5
BB
330
B9
100
AcDbEntity
  8
0
100
AcDbBlockEnd
  0
BLOCK
  5
BD
330
BC
100
AcDbEntity
  8
0
100
AcDbBlockBegin
  2
DC_GROUP_HFB-3M_3
 70
     0
 10
0.0
 20
0.0
 30
0.0
  3
DC_GROUP_HFB-3M_3
  1

  0
LINE
  5
26E
330
BC
100
AcDbEntity
  8
ZUWAKU
  6
Continuous
 62
     7
370
    13
100
AcDbLine
 10
183.789907
 20
132.754399
 30
0.0
 11
183.907718
 21
132.87221
 31
0.0
  0
LINE
  5
26F
330
BC
100
AcDbEntity
  8
ZUWAKU
  6
Continuous
 62
     7
370
    13
100
AcDbLine
 10
183.570171
 20
132.676084
 30
0.0
 11
183.986033
 21
133.091946
 31
0.0
  0
LINE
  5
270
330
BC
100
AcDbEntity
  8
ZUWAKU
  6
Continuous
 62
     7
370
    13
100
AcDbLine
 10
183.423915
 20
132.67125
 30
0.0
 11
183.990867
 21
133.238202
 31
0.0
  0
LINE
  5
271
330
BC
100
AcDbEntity
  8
ZUWAKU
  6
Continuous
 62
     7
370
    13
100
AcDbLine
 10
180.737398
 20
130.126154
 30
0.0
 11
180.750963
 21
130.139719
 31
0.0
  0
LINE
  5
272
330
BC
100
AcDbEntity
  8
ZUWAKU
  6
Continuous
 62
     7
370
    13
100
AcDbLine
 10
183.282494
 20
132.67125
 30
0.0
 11
183.990867
 21
133.379623
 31
0.0
  0
LINE
  5
273
330
BC
100
AcDbEntity
  8
ZUWAKU
  6
Continuous
 62
     7
370
    13
100
AcDbLine
 10
180.481056
 20
130.011233
 30
0.0
 11
180.865884
 21
130.396061
 31
0.0
  0
LINE
  5
274
330
BC
100
AcDbEntity
  8
ZUWAKU
  6
Continuous
 62
     7
370
    13
100
AcDbLine
 10
183.141073
 20
132.67125
 30
0.0
 11
183.990867
 21
133.521044
 31
0.0
  0
LINE
  5
275
330
BC
100
AcDbEntity
  8
ZUWAKU
  6
Continuous
 62
     7
370
    13
100
AcDbLine
 10
180.329651
 20
130.00125
 30
0.0
 11
180.875867
 21
130.547466
 31
0.0
  0
LINE
  5
276
330
BC
100
AcDbEntity
  8
ZUWAKU
  6
Continuous
 62
     7
370
    13
100
AcDbLine
 10
182.999651
 20
132.67125
 30
0.0
 11
183.990867
 21
133.662466
 31
0.0
  0
LINE
  5
277
330
BC
100
AcDbEntity
  8
ZUWAKU
  6
Continuous
 62
     7
370
    13
100
AcDbLine
 10
180.18823
 20
130.00125
 30
0.0
 11
180.875867
 21
130.688887
 31
0.0
  0
LINE
  5
278
330
BC
100
AcDbEntity
  8
ZUWAKU
  6
Continuous
 62
     7
370
    13
100
AcDbLine
 10
182.85823
 20
132.67125
 30
0.0
 11
183.990867
 21
133.803887
 31
0.0
  0
LINE
  5
279
330
BC
100
AcDbEntity
  8
ZUWAKU
  6
Continuous
 62
     7
370
    13
100
AcDbLine
 10
180.046808
 20
130.00125
 30
0.0
 11
180.875867
 21
130.830309
 31
0.0
  0
LINE
  5
27A
330
BC
100
AcDbEntity
  8
ZUWAKU
  6
Continuous
 62
     7
370
    13
100
AcDbLine
 10
182.716808
 20
132.67125
 30
0.0
 11
183.990867
 21
133.945309
 31
0.0
  0
LINE
  5
27B
330
BC
100
AcDbEntity
  8
ZUWAKU
  6
Continuous
 62
     7
370
    13
100
AcDbLine
 10
179.905387
 20
130.00125
 30
0.0
 11
180.875867
 21
130.97173
 31
0.0
  0
LINE
  5
27C
330
BC
100
AcDbEntity
  8
ZUWAKU
  6
Continuous
 62
     7
370
    13
100
AcDbLine
 10
182.575387
 20
132.67125
 30
0.0
 11
183.990867
 21
134.08673
 31
0.0
  0
LINE
  5
27D
330
BC
100
AcDbEntity
  8
ZUWAKU
  6
Continuous
 62
     7
370
    13
100
AcDbLine
 10
179.763966
 20
130.00125
 30
0.0
 11
180.875867
 21
131.113151
 31
0.0
  0
LINE
  5
27E
330
BC
100
AcDbEntity
  8
ZUWAKU
  6
Continuous
 62
     7
370
    13
100
AcDbLine
 10
182.433966
 20
132.67125
 30
0.0
 11
183.990867
 21
134.228151
 31
0.0
  0
LINE
  5
27F
330
BC
100
AcDbEntity
  8
ZUWAKU
  6
Continuous
 62
     7
370
    13
100
AcDbLine
 10
179.622544
 20
130.00125
 30
0.0
 11
180.875867
 21
131.254573
 31
0.0
  0
LINE
  5
280
330
BC
100
AcDbEntity
  8
ZUWAKU
  6
Continuous
 62
     7
370
    13
100
AcDbLine
 10
182.292544
 20
132.67125
 30
0.0
 11
183.990867
 21
134.369573
 31
0.0
  0
LINE
  5
281
330
BC
100
AcDbEntity
  8
ZUWAKU
  6
Continuous
 62
     7
370
    13
100
AcDbLine
 10
179.481123
 20
130.00125
 30
0.0
 11
180.875867
 21
131.395994
 31
0.0
  0
LINE
  5
282
330
BC
100
AcDbEntity
  8
ZUWAKU
  6
Continuous
 62
     7
370
    13
100
AcDbLine
 10
182.151123
 20
132.67125
 30
0.0
 11
183.990867
 21
134.510994
 31
0.0
  0
LINE
  5
283
330
BC
100
AcDbEntity
  8
ZUWAKU
  6
Continuous
 62
     7
370
    13
100
AcDbLine
 10
179.339702
 20
130.00125
 30
0.0
 11
180.875867
 21
131.537415
 31
0.0
  0
LINE
  5
284
330
BC
100
AcDbEntity
  8
ZUWAKU
  6
Continuous
 62
     7
370
    13
100
AcDbLine
 10
182.009702
 20
132.67125
 30
0.0
 11
183.990867
 21
134.652415
 31
0.0
  0
LINE
  5
285
330
BC
100
AcDbEntity
  8
ZUWAKU
  6
Continuous
 62
     7
370
    13
100
AcDbLine
 10
179.19828
 20
130.00125
 30
0.0
 11
180.875867
 21
131.678837
 31
0.0
  0
LINE
  5
286
330
BC
100
AcDbEntity
  8
ZUWAKU
  6
Continuous
 62
     7
370
    13
100
AcDbLine
 10
181.86828
 20
132.67125
 30
0.0
 11
183.990867
 21
134.793837
 31
0.0
  0
LINE
  5
287
330
BC
100
AcDbEntity
  8
ZUWAKU
  6
Continuous
 62
     7
370
    13
100
AcDbLine
 10
179.063331
 20
130.007722
 30
0.0
 11
180.875867
 21
131.820258
 31
0.0
  0
LINE
  5
288
330
BC
100
AcDbEntity
  8
ZUWAKU
  6
Continuous
 62
     7
370
    13
100
AcDbLine
 10
181.726859
 20
132.67125
 30
0.0
 11
183.990867
 21
134.935258
 31
0.0
  0
LINE
  5
289
330
BC
100
AcDbEntity
  8
ZUWAKU
  6
Continuous
 62
     7
370
    13
100
AcDbLine
 10
178.945373
 20
130.031185
 30
0.0
 11
180.875867
 21
131.961679
 31
0.0
  0
LINE
  5
28A
330
BC
100
AcDbEntity
  8
ZUWAKU
  6
Continuous
 62
     7
370
    13
100
AcDbLine
 10
181.585438
 20
132.67125
 30
0.0
 11
183.990867
 21
135.076679
 31
0.0
  0
LINE
  5
28B
330
BC
100
AcDbEntity
  8
ZUWAKU
  6
Continuous
 62
     7
370
    13
100
AcDbLine
 10
178.855027
 20
130.082261
 30
0.0
 11
180.875867
 21
132.103101
 31
0.0
  0
LINE
  5
28C
330
BC
100
AcDbEntity
  8
ZUWAKU
  6
Continuous
 62
     7
370
    13
100
AcDbLine
 10
181.444016
 20
132.67125
 30
0.0
 11
183.990867
 21
135.218101
 31
0.0
  0
LINE
  5
28D
330
BC
100
AcDbEntity
  8
ZUWAKU
  6
Continuous
 62
     7
370
    13
100
AcDbLine
 10
178.773886
 20
130.142541
 30
0.0
 11
180.875867
 21
132.244522
 31
0.0
  0
LINE
  5
28E
330
BC
100
AcDbEntity
  8
ZUWAKU
  6
Continuous
 62
     7
370
    13
100
AcDbLine
 10
181.302595
 20
132.67125
 30
0.0
 11
183.990867
 21
135.359522
 31
0.0
  0
LINE
  5
28F
330
BC
100
AcDbEntity
  8
ZUWAKU
  6
Continuous
 62
     7
370
    13
100
AcDbLine
 10
178.71724
 20
130.227317
 30
0.0
 11
180.875867
 21
132.385943
 31
0.0
  0
LINE
  5
290
330
BC
100
AcDbEntity
  8
ZUWAKU
  6
Continuous
 62
     7
370
    13
100
AcDbLine
 10
181.161174
 20
132.67125
 30
0.0
 11
183.990867
 21
135.500943
 31
0.0
  0
LINE
  5
291
330
BC
100
AcDbEntity
  8
ZUWAKU
  6
Continuous
 62
     7
370
    13
100
AcDbLine
 10
178.674739
 20
130.326237
 30
0.0
 11
180.875867
 21
132.527365
 31
0.0
  0
LINE
  5
292
330
BC
100
AcDbEntity
  8
ZUWAKU
  6
Continuous
 62
     7
370
    13
100
AcDbLine
 10
181.019752
 20
132.67125
 30
0.0
 11
182.700448
 21
134.351945
 31
0.0
  0
LINE
  5
293
330
BC
100
AcDbEntity
  8
ZUWAKU
  6
Continuous
 62
     7
370
    13
100
AcDbLine
 10
182.977672
 20
134.629169
 30
0.0
 11
183.990867
 21
135.642365
 31
0.0
  0
LINE
  5
294
330
BC
100
AcDbEntity
  8
ZUWAKU
  6
Continuous
 62
     7
370
    13
100
AcDbLine
 10
178.651276
 20
130.444195
 30
0.0
 11
180.875867
 21
132.668786
 31
0.0
  0
LINE
  5
295
330
BC
100
AcDbEntity
  8
ZUWAKU
  6
Continuous
 62
     7
370
    13
100
AcDbLine
 10
180.878331
 20
132.67125
 30
0.0
 11
182.57007
 21
134.362989
 31
0.0
  0
LINE
  5
296
330
BC
100
AcDbEntity
  8
ZUWAKU
  6
Continuous
 62
     7
370
    13
100
AcDbLine
 10
182.989617
 20
134.782536
 30
0.0
 11
183.990867
 21
135.783786
 31
0.0
  0
LINE
  5
297
330
BC
100
AcDbEntity
  8
ZUWAKU
  6
Continuous
 62
     7
370
    13
100
AcDbLine
 10
178.650867
 20
130.585208
 30
0.0
 11
182.469683
 21
134.404023
 31
0.0
  0
LINE
  5
298
330
BC
100
AcDbEntity
  8
ZUWAKU
  6
Continuous
 62
     7
370
    13
100
AcDbLine
 10
182.989617
 20
134.923958
 30
0.0
 11
183.990867
 21
135.925208
 31
0.0
  0
LINE
  5
299
330
BC
100
AcDbEntity
  8
ZUWAKU
  6
Continuous
 62
     7
370
    13
100
AcDbLine
 10
178.650867
 20
130.726629
 30
0.0
 11
182.398972
 21
134.474734
 31
0.0
  0
LINE
  5
29A
330
BC
100
AcDbEntity
  8
ZUWAKU
  6
Continuous
 62
     7
370
    13
100
AcDbLine
 10
182.989617
 20
135.065379
 30
0.0
 11
183.990867
 21
136.066629
 31
0.0
  0
LINE
  5
29B
330
BC
100
AcDbEntity
  8
ZUWAKU
  6
Continuous
 62
     7
370
    13
100
AcDbLine
 10
178.650867
 20
130.86805
 30
0.0
 11
182.35053
 21
134.567713
 31
0.0
  0
LINE
  5
29C
330
BC
100
AcDbEntity
  8
ZUWAKU
  6
Continuous
 62
     7
370
    13
100
AcDbLine
 10
182.989617
 20
135.2068
 30
0.0
 11
183.990867
 21
136.20805
 31
0.0
  0
LINE
  5
29D
330
BC
100
AcDbEntity
  8
ZUWAKU
  6
Continuous
 62
     7
370
    13
100
AcDbLine
 10
178.650867
 20
131.009472
 30
0.0
 11
182.322117
 21
134.680722
 31
0.0
  0
LINE
  5
29E
330
BC
100
AcDbEntity
  8
ZUWAKU
  6
Continuous
 62
     7
370
    13
100
AcDbLine
 10
182.989617
 20
135.348222
 30
0.0
 11
183.990867
 21
136.349472
 31
0.0
  0
LINE
  5
29F
330
BC
100
AcDbEntity
  8
ZUWAKU
  6
Continuous
 62
     7
370
    13
100
AcDbLine
 10
178.650867
 20
131.150893
 30
0.0
 11
182.322117
 21
134.822143
 31
0.0
  0
LINE
  5
2A0
330
BC
100
AcDbEntity
  8
ZUWAKU
  6
Continuous
 62
     7
370
    13
100
AcDbLine
 10
182.989617
 20
135.489643
 30
0.0
 11
183.990867
 21
136.490893
 31
0.0
  0
LINE
  5
2A1
330
BC
100
AcDbEntity
  8
ZUWAKU
  6
Continuous
 62
     7
370
    13
100
AcDbLine
 10
178.650867
 20
131.292314
 30
0.0
 11
182.322117
 21
134.963564
 31
0.0
  0
LINE
  5
2A2
330
BC
100
AcDbEntity
  8
ZUWAKU
  6
Continuous
 62
     7
370
    13
100
AcDbLine
 10
182.989617
 20
135.631064
 30
0.0
 11
183.990867
 21
136.632314
 31
0.0
  0
LINE
  5
2A3
330
BC
100
AcDbEntity
  8
ZUWAKU
  6
Continuous
 62
     7
370
    13
100
AcDbLine
 10
178.650867
 20
131.433736
 30
0.0
 11
182.322117
 21
135.104986
 31
0.0
  0
LINE
  5
2A4
330
BC
100
AcDbEntity
  8
ZUWAKU
  6
Continuous
 62
     7
370
    13
100
AcDbLine
 10
182.989617
 20
135.772486
 30
0.0
 11
183.990867
 21
136.773736
 31
0.0
  0
LINE
  5
2A5
330
BC
100
AcDbEntity
  8
ZUWAKU
  6
Continuous
 62
     7
370
    13
100
AcDbLine
 10
178.650867
 20
131.575157
 30
0.0
 11
182.322117
 21
135.246407
 31
0.0
  0
LINE
  5
2A6
330
BC
100
AcDbEntity
  8
ZUWAKU
  6
Continuous
 62
     7
370
    13
100
AcDbLine
 10
182.96264
 20
135.88693
 30
0.0
 11
183.990867
 21
136.915157
 31
0.0
  0
LINE
  5
2A7
330
BC
100
AcDbEntity
  8
ZUWAKU
  6
Continuous
 62
     7
370
    13
100
AcDbLine
 10
178.650867
 20
131.716578
 30
0.0
 11
182.322117
 21
135.387828
 31
0.0
  0
LINE
  5
2A8
330
BC
100
AcDbEntity
  8
ZUWAKU
  6
Continuous
 62
     7
370
    13
100
AcDbLine
 10
182.916158
 20
135.98187
 30
0.0
 11
183.990867
 21
137.056578
 31
0.0
  0
LINE
  5
2A9
330
BC
100
AcDbEntity
  8
ZUWAKU
  6
Continuous
 62
     7
370
    13
100
AcDbLine
 10
178.650867
 20
131.858
 30
0.0
 11
182.322117
 21
135.52925
 31
0.0
  0
LINE
  5
2AA
330
BC
100
AcDbEntity
  8
ZUWAKU
  6
Continuous
 62
     7
370
    13
100
AcDbLine
 10
182.845448
 20
136.05258
 30
0.0
 11
183.990867
 21
137.198
 31
0.0
  0
LINE
  5
2AB
330
BC
100
AcDbEntity
  8
ZUWAKU
  6
Continuous
 62
     7
370
    13
100
AcDbLine
 10
178.650867
 20
131.999421
 30
0.0
 11
182.322117
 21
135.670671
 31
0.0
  0
LINE
  5
2AC
330
BC
100
AcDbEntity
  8
ZUWAKU
  6
Continuous
 62
     7
370
    13
100
AcDbLine
 10
182.747021
 20
136.095575
 30
0.0
 11
183.990867
 21
137.339421
 31
0.0
  0
LINE
  5
2AD
330
BC
100
AcDbEntity
  8
ZUWAKU
  6
Continuous
 62
     7
370
    13
100
AcDbLine
 10
178.650867
 20
132.140842
 30
0.0
 11
182.331576
 21
135.821551
 31
0.0
  0
LINE
  5
2AE
330
BC
100
AcDbEntity
  8
ZUWAKU
  6
Continuous
 62
     7
370
    13
100
AcDbLine
 10
182.620566
 20
136.110541
 30
0.0
 11
183.968122
 21
137.458097
 31
0.0
  0
LINE
  5
2AF
330
BC
100
AcDbEntity
  8
ZUWAKU
  6
Continuous
 62
     7
370
    13
100
AcDbLine
 10
178.650867
 20
132.282264
 30
0.0
 11
183.927215
 21
137.558611
 31
0.0
  0
LINE
  5
2B0
330
BC
100
AcDbEntity
  8
ZUWAKU
  6
Continuous
 62
     7
370
    13
100
AcDbLine
 10
178.650867
 20
132.423685
 30
0.0
 11
183.870569
 21
137.643387
 31
0.0
  0
LINE
  5
2B1
330
BC
100
AcDbEntity
  8
ZUWAKU
  6
Continuous
 62
     7
370
    13
100
AcDbLine
 10
178.650867
 20
132.565106
 30
0.0
 11
183.790779
 21
137.705018
 31
0.0
  0
LINE
  5
2B2
330
BC
100
AcDbEntity
  8
ZUWAKU
  6
Continuous
 62
     7
370
    13
100
AcDbLine
 10
178.650867
 20
132.706528
 30
0.0
 11
183.702027
 21
137.757688
 31
0.0
  0
LINE
  5
2B3
330
BC
100
AcDbEntity
  8
ZUWAKU
  6
Continuous
 62
     7
370
    13
100
AcDbLine
 10
178.650867
 20
132.847949
 30
0.0
 11
183.584069
 21
137.781151
 31
0.0
  0
LINE
  5
2B4
330
BC
100
AcDbEntity
  8
ZUWAKU
  6
Continuous
 62
     7
370
    13
100
AcDbLine
 10
178.650867
 20
132.989371
 30
0.0
 11
183.450246
 21
137.78875
 31
0.0
  0
LINE
  5
2B5
330
BC
100
AcDbEntity
  8
ZUWAKU
  6
Continuous
 62
     7
370
    13
100
AcDbLine
 10
178.650867
 20
133.130792
 30
0.0
 11
183.308825
 21
137.78875
 31
0.0
  0
LINE
  5
2B6
330
BC
100
AcDbEntity
  8
ZUWAKU
  6
Continuous
 62
     7
370
    13
100
AcDbLine
 10
178.650867
 20
133.272213
 30
0.0
 11
183.167404
 21
137.78875
 31
0.0
  0
LINE
  5
2B7
330
BC
100
AcDbEntity
  8
ZUWAKU
  6
Continuous
 62
     7
370
    13
100
AcDbLine
 10
178.650867
 20
133.413635
 30
0.0
 11
183.025982
 21
137.78875
 31
0.0
  0
LINE
  5
2B8
330
BC
100
AcDbEntity
  8
ZUWAKU
  6
Continuous
 62
     7
370
    13
100
AcDbLine
 10
178.650867
 20
133.555056
 30
0.0
 11
182.884561
 21
137.78875
 31
0.0
  0
LINE
  5
2B9
330
BC
100
AcDbEntity
  8
ZUWAKU
  6
Continuous
 62
     7
370
    13
100
AcDbLine
 10
178.650867
 20
133.696477
 30
0.0
 11
182.74314
 21
137.78875
 31
0.0
  0
LINE
  5
2BA
330
BC
100
AcDbEntity
  8
ZUWAKU
  6
Continuous
 62
     7
370
    13
100
AcDbLine
 10
178.650867
 20
133.837899
 30
0.0
 11
182.601718
 21
137.78875
 31
0.0
  0
LINE
  5
2BB
330
BC
100
AcDbEntity
  8
ZUWAKU
  6
Continuous
 62
     7
370
    13
100
AcDbLine
 10
178.650867
 20
133.97932
 30
0.0
 11
182.460297
 21
137.78875
 31
0.0
  0
LINE
  5
2BC
330
BC
100
AcDbEntity
  8
ZUWAKU
  6
Continuous
 62
     7
370
    13
100
AcDbLine
 10
178.650867
 20
134.120741
 30
0.0
 11
182.318876
 21
137.78875
 31
0.0
  0
LINE
  5
2BD
330
BC
100
AcDbEntity
  8
ZUWAKU
  6
Continuous
 62
     7
370
    13
100
AcDbLine
 10
178.650867
 20
134.262163
 30
0.0
 11
182.177454
 21
137.78875
 31
0.0
  0
LINE
  5
2BE
330
BC
100
AcDbEntity
  8
ZUWAKU
  6
Continuous
 62
     7
370
    13
100
AcDbLine
 10
178.650867
 20
134.403584
 30
0.0
 11
182.036033
 21
137.78875
 31
0.0
  0
LINE
  5
2BF
330
BC
100
AcDbEntity
  8
ZUWAKU
  6
Continuous
 62
     7
370
    13
100
AcDbLine
 10
178.650867
 20
134.545005
 30
0.0
 11
181.894612
 21
137.78875
 31
0.0
  0
LINE
  5
2C0
330
BC
100
AcDbEntity
  8
ZUWAKU
  6
Continuous
 62
     7
370
    13
100
AcDbLine
 10
178.650867
 20
134.686427
 30
0.0
 11
181.75319
 21
137.78875
 31
0.0
  0
LINE
  5
2C1
330
BC
100
AcDbEntity
  8
ZUWAKU
  6
Continuous
 62
     7
370
    13
100
AcDbLine
 10
178.650867
 20
134.827848
 30
0.0
 11
181.611769
 21
137.78875
 31
0.0
  0
LINE
  5
2C2
330
BC
100
AcDbEntity
  8
ZUWAKU
  6
Continuous
 62
     7
370
    13
100
AcDbLine
 10
178.650867
 20
134.96927
 30
0.0
 11
181.470347
 21
137.78875
 31
0.0
  0
LINE
  5
2C3
330
BC
100
AcDbEntity
  8
ZUWAKU
  6
Continuous
 62
     7
370
    13
100
AcDbLine
 10
178.650867
 20
135.110691
 30
0.0
 11
181.328926
 21
137.78875
 31
0.0
  0
LINE
  5
2C4
330
BC
100
AcDbEntity
  8
ZUWAKU
  6
Continuous
 62
     7
370
    13
100
AcDbLine
 10
178.650867
 20
135.252112
 30
0.0
 11
181.187505
 21
137.78875
 31
0.0
  0
LINE
  5
2C5
330
BC
100
AcDbEntity
  8
ZUWAKU
  6
Continuous
 62
     7
370
    13
100
AcDbLine
 10
178.650867
 20
135.393534
 30
0.0
 11
181.046083
 21
137.78875
 31
0.0
  0
LINE
  5
2C6
330
BC
100
AcDbEntity
  8
ZUWAKU
  6
Continuous
 62
     7
370
    13
100
AcDbLine
 10
178.650867
 20
135.534955
 30
0.0
 11
180.904662
 21
137.78875
 31
0.0
  0
LINE
  5
2C7
330
BC
100
AcDbEntity
  8
ZUWAKU
  6
Continuous
 62
     7
370
    13
100
AcDbLine
 10
178.650867
 20
135.676376
 30
0.0
 11
180.763241
 21
137.78875
 31
0.0
  0
LINE
  5
2C8
330
BC
100
AcDbEntity
  8
ZUWAKU
  6
Continuous
 62
     7
370
    13
100
AcDbLine
 10
178.650867
 20
135.817798
 30
0.0
 11
180.621819
 21
137.78875
 31
0.0
  0
LINE
  5
2C9
330
BC
100
AcDbEntity
  8
ZUWAKU
  6
Continuous
 62
     7
370
    13
100
AcDbLine
 10
178.650867
 20
135.959219
 30
0.0
 11
180.480398
 21
137.78875
 31
0.0
  0
LINE
  5
2CA
330
BC
100
AcDbEntity
  8
ZUWAKU
  6
Continuous
 62
     7
370
    13
100
AcDbLine
 10
178.650867
 20
136.10064
 30
0.0
 11
180.338977
 21
137.78875
 31
0.0
  0
LINE
  5
2CB
330
BC
100
AcDbEntity
  8
ZUWAKU
  6
Continuous
 62
     7
370
    13
100
AcDbLine
 10
178.650867
 20
136.242062
 30
0.0
 11
180.197555
 21
137.78875
 31
0.0
  0
LINE
  5
2CC
330
BC
100
AcDbEntity
  8
ZUWAKU
  6
Continuous
 62
     7
370
    13
100
AcDbLine
 10
178.650867
 20
136.383483
 30
0.0
 11
180.056134
 21
137.78875
 31
0.0
  0
LINE
  5
2CD
330
BC
100
AcDbEntity
  8
ZUWAKU
  6
Continuous
 62
     7
370
    13
100
AcDbLine
 10
178.650867
 20
136.524904
 30
0.0
 11
179.914713
 21
137.78875
 31
0.0
  0
LINE
  5
2CE
330
BC
100
AcDbEntity
  8
ZUWAKU
  6
Continuous
 62
     7
370
    13
100
AcDbLine
 10
178.650867
 20
136.666326
 30
0.0
 11
179.773291
 21
137.78875
 31
0.0
  0
LINE
  5
2CF
330
BC
100
AcDbEntity
  8
ZUWAKU
  6
Continuous
 62
     7
370
    13
100
AcDbLine
 10
178.650867
 20
136.807747
 30
0.0
 11
179.63187
 21
137.78875
 31
0.0
  0
LINE
  5
2D0
330
BC
100
AcDbEntity
  8
ZUWAKU
  6
Continuous
 62
     7
370
    13
100
AcDbLine
 10
178.650867
 20
136.949169
 30
0.0
 11
179.490448
 21
137.78875
 31
0.0
  0
LINE
  5
2D1
330
BC
100
AcDbEntity
  8
ZUWAKU
  6
Continuous
 62
     7
370
    13
100
AcDbLine
 10
178.650867
 20
137.09059
 30
0.0
 11
179.349027
 21
137.78875
 31
0.0
  0
LINE
  5
2D2
330
BC
100
AcDbEntity
  8
ZUWAKU
  6
Continuous
 62
     7
370
    13
100
AcDbLine
 10
178.650867
 20
137.232011
 30
0.0
 11
179.207606
 21
137.78875
 31
0.0
  0
LINE
  5
2D3
330
BC
100
AcDbEntity
  8
ZUWAKU
  6
Continuous
 62
     7
370
    13
100
AcDbLine
 10
178.658237
 20
137.380803
 30
0.0
 11
179.058814
 21
137.78138
 31
0.0
  0
LINE
  5
2D4
330
BC
100
AcDbEntity
  8
ZUWAKU
  6
Continuous
 62
     7
370
    13
100
AcDbLine
 10
178.754582
 20
137.618569
 30
0.0
 11
178.821048
 21
137.685035
 31
0.0
  0
LINE
  5
2D5
330
BC
100
AcDbEntity
  8
ZUWAKU
  6
Continuous
 62
     7
370
    13
100
AcDbLine
 10
183.980214
 20
137.397307
 30
0.0
 11
183.599424
 21
137.778097
 31
0.0
  0
LINE
  5
2D6
330
BC
100
AcDbEntity
  8
ZUWAKU
  6
Continuous
 62
     7
370
    13
100
AcDbLine
 10
183.990867
 20
137.245232
 30
0.0
 11
183.447349
 21
137.78875
 31
0.0
  0
LINE
  5
2D7
330
BC
100
AcDbEntity
  8
ZUWAKU
  6
Continuous
 62
     7
370
    13
100
AcDbLine
 10
183.990867
 20
137.103811
 30
0.0
 11
183.305928
 21
137.78875
 31
0.0
  0
LINE
  5
2D8
330
BC
100
AcDbEntity
  8
ZUWAKU
  6
Continuous
 62
     7
370
    13
100
AcDbLine
 10
183.990867
 20
136.96239
 30
0.0
 11
183.164507
 21
137.78875
 31
0.0
  0
LINE
  5
2D9
330
BC
100
AcDbEntity
  8
ZUWAKU
  6
Continuous
 62
     7
370
    13
100
AcDbLine
 10
183.990867
 20
136.820968
 30
0.0
 11
183.023085
 21
137.78875
 31
0.0
  0
LINE
  5
2DA
330
BC
100
AcDbEntity
  8
ZUWAKU
  6
Continuous
 62
     7
370
    13
100
AcDbLine
 10
183.990867
 20
136.679547
 30
0.0
 11
182.881664
 21
137.78875
 31
0.0
  0
LINE
  5
2DB
330
BC
100
AcDbEntity
  8
ZUWAKU
  6
Continuous
 62
     7
370
    13
100
AcDbLine
 10
183.990867
 20
136.538126
 30
0.0
 11
182.740243
 21
137.78875
 31
0.0
  0
LINE
  5
2DC
330
BC
100
AcDbEntity
  8
ZUWAKU
  6
Continuous
 62
     7
370
    13
100
AcDbLine
 10
183.990867
 20
136.396704
 30
0.0
 11
182.598821
 21
137.78875
 31
0.0
  0
LINE
  5
2DD
330
BC
100
AcDbEntity
  8
ZUWAKU
  6
Continuous
 62
     7
370
    13
100
AcDbLine
 10
183.990867
 20
136.255283
 30
0.0
 11
182.4574
 21
137.78875
 31
0.0
  0
LINE
  5
2DE
330
BC
100
AcDbEntity
  8
ZUWAKU
  6
Continuous
 62
     7
370
    13
100
AcDbLine
 10
183.990867
 20
136.113861
 30
0.0
 11
182.315978
 21
137.78875
 31
0.0
  0
LINE
  5
2DF
330
BC
100
AcDbEntity
  8
ZUWAKU
  6
Continuous
 62
     7
370
    13
100
AcDbLine
 10
183.990867
 20
135.97244
 30
0.0
 11
182.174557
 21
137.78875
 31
0.0
  0
LINE
  5
2E0
330
BC
100
AcDbEntity
  8
ZUWAKU
  6
Continuous
 62
     7
370
    13
100
AcDbLine
 10
183.990867
 20
135.831019
 30
0.0
 11
182.033136
 21
137.78875
 31
0.0
  0
LINE
  5
2E1
330
BC
100
AcDbEntity
  8
ZUWAKU
  6
Continuous
 62
     7
370
    13
100
AcDbLine
 10
183.990867
 20
135.689597
 30
0.0
 11
181.891714
 21
137.78875
 31
0.0
  0
LINE
  5
2E2
330
BC
100
AcDbEntity
  8
ZUWAKU
  6
Continuous
 62
     7
370
    13
100
AcDbLine
 10
183.990867
 20
135.548176
 30
0.0
 11
181.750293
 21
137.78875
 31
0.0
  0
LINE
  5
2E3
330
BC
100
AcDbEntity
  8
ZUWAKU
  6
Continuous
 62
     7
370
    13
100
AcDbLine
 10
183.990867
 20
135.406755
 30
0.0
 11
181.608872
 21
137.78875
 31
0.0
  0
LINE
  5
2E4
330
BC
100
AcDbEntity
  8
ZUWAKU
  6
Continuous
 62
     7
370
    13
100
AcDbLine
 10
183.990867
 20
135.265333
 30
0.0
 11
181.46745
 21
137.78875
 31
0.0
  0
LINE
  5
2E5
330
BC
100
AcDbEntity
  8
ZUWAKU
  6
Continuous
 62
     7
370
    13
100
AcDbLine
 10
183.990867
 20
135.123912
 30
0.0
 11
181.326029
 21
137.78875
 31
0.0
  0
LINE
  5
2E6
330
BC
100
AcDbEntity
  8
ZUWAKU
  6
Continuous
 62
     7
370
    13
100
AcDbLine
 10
183.990867
 20
134.982491
 30
0.0
 11
181.184608
 21
137.78875
 31
0.0
  0
LINE
  5
2E7
330
BC
100
AcDbEntity
  8
ZUWAKU
  6
Continuous
 62
     7
370
    13
100
AcDbLine
 10
183.990867
 20
134.841069
 30
0.0
 11
182.969094
 21
135.862842
 31
0.0
  0
LINE
  5
2E8
330
BC
100
AcDbEntity
  8
ZUWAKU
  6
Continuous
 62
     7
370
    13
100
AcDbLine
 10
182.732459
 20
136.099477
 30
0.0
 11
181.043186
 21
137.78875
 31
0.0
  0
LINE
  5
2E9
330
BC
100
AcDbEntity
  8
ZUWAKU
  6
Continuous
 62
     7
370
    13
100
AcDbLine
 10
183.990867
 20
134.699648
 30
0.0
 11
182.989617
 21
135.700898
 31
0.0
  0
LINE
  5
2EA
330
BC
100
AcDbEntity
  8
ZUWAKU
  6
Continuous
 62
     7
370
    13
100
AcDbLine
 10
182.588552
 20
136.101963
 30
0.0
 11
180.901765
 21
137.78875
 31
0.0
  0
LINE
  5
2EB
330
BC
100
AcDbEntity
  8
ZUWAKU
  6
Continuous
 62
     7
370
    13
100
AcDbLine
 10
183.990867
 20
134.558227
 30
0.0
 11
182.989617
 21
135.559477
 31
0.0
  0
LINE
  5
2EC
330
BC
100
AcDbEntity
  8
ZUWAKU
  6
Continuous
 62
     7
370
    13
100
AcDbLine
 10
182.4814
 20
136.067694
 30
0.0
 11
180.760344
 21
137.78875
 31
0.0
  0
LINE
  5
2ED
330
BC
100
AcDbEntity
  8
ZUWAKU
  6
Continuous
 62
     7
370
    13
100
AcDbLine
 10
183.990867
 20
134.416805
 30
0.0
 11
182.989617
 21
135.418055
 31
0.0
  0
LINE
  5
2EE
330
BC
100
AcDbEntity
  8
ZUWAKU
  6
Continuous
 62
     7
370
    13
100
AcDbLine
 10
182.410689
 20
135.996983
 30
0.0
 11
180.618922
 21
137.78875
 31
0.0
  0
LINE
  5
2EF
330
BC
100
AcDbEntity
  8
ZUWAKU
  6
Continuous
 62
     7
370
    13
100
AcDbLine
 10
183.990867
 20
134.275384
 30
0.0
 11
182.989617
 21
135.276634
 31
0.0
  0
LINE
  5
2F0
330
BC
100
AcDbEntity
  8
ZUWAKU
  6
Continuous
 62
     7
370
    13
100
AcDbLine
 10
182.355482
 20
135.910769
 30
0.0
 11
180.477501
 21
137.78875
 31
0.0
  0
LINE
  5
2F1
330
BC
100
AcDbEntity
  8
ZUWAKU
  6
Continuous
 62
     7
370
    13
100
AcDbLine
 10
183.990867
 20
134.133962
 30
0.0
 11
182.989617
 21
135.135212
 31
0.0
  0
LINE
  5
2F2
330
BC
100
AcDbEntity
  8
ZUWAKU
  6
Continuous
 62
     7
370
    13
100
AcDbLine
 10
182.325596
 20
135.799234
 30
0.0
 11
180.336079
 21
137.78875
 31
0.0
  0
LINE
  5
2F3
330
BC
100
AcDbEntity
  8
ZUWAKU
  6
Continuous
 62
     7
370
    13
100
AcDbLine
 10
183.990867
 20
133.992541
 30
0.0
 11
182.989617
 21
134.993791
 31
0.0
  0
LINE
  5
2F4
330
BC
100
AcDbEntity
  8
ZUWAKU
  6
Continuous
 62
     7
370
    13
100
AcDbLine
 10
182.322117
 20
135.661291
 30
0.0
 11
180.194658
 21
137.78875
 31
0.0
  0
LINE
  5
2F5
330
BC
100
AcDbEntity
  8
ZUWAKU
  6
Continuous
 62
     7
370
    13
100
AcDbLine
 10
183.990867
 20
133.85112
 30
0.0
 11
182.989617
 21
134.85237
 31
0.0
  0
LINE
  5
2F6
330
BC
100
AcDbEntity
  8
ZUWAKU
  6
Continuous
 62
     7
370
    13
100
AcDbLine
 10
182.322117
 20
135.51987
 30
0.0
 11
180.053237
 21
137.78875
 31
0.0
  0
LINE
  5
2F7
330
BC
100
AcDbEntity
  8
ZUWAKU
  6
Continuous
 62
     7
370
    13
100
AcDbLine
 10
183.990867
 20
133.709698
 30
0.0
 11
182.989617
 21
134.710948
 31
0.0
  0
LINE
  5
2F8
330
BC
100
AcDbEntity
  8
ZUWAKU
  6
Continuous
 62
     7
370
    13
100
AcDbLine
 10
182.322117
 20
135.378448
 30
0.0
 11
179.911815
 21
137.78875
 31
0.0
  0
LINE
  5
2F9
330
BC
100
AcDbEntity
  8
ZUWAKU
  6
Continuous
 62
     7
370
    13
100
AcDbLine
 10
183.990867
 20
133.568277
 30
0.0
 11
182.967592
 21
134.591552
 31
0.0
  0
LINE
  5
2FA
330
BC
100
AcDbEntity
  8
ZUWAKU
  6
Continuous
 62
     7
370
    13
100
AcDbLine
 10
182.322117
 20
135.237027
 30
0.0
 11
179.770394
 21
137.78875
 31
0.0
  0
LINE
  5
2FB
330
BC
100
AcDbEntity
  8
ZUWAKU
  6
Continuous
 62
     7
370
    13
100
AcDbLine
 10
183.990867
 20
133.426856
 30
0.0
 11
182.927875
 21
134.489847
 31
0.0
  0
LINE
  5
2FC
330
BC
100
AcDbEntity
  8
ZUWAKU
  6
Continuous
 62
     7
370
    13
100
AcDbLine
 10
182.322117
 20
135.095606
 30
0.0
 11
179.628973
 21
137.78875
 31
0.0
  0
LINE
  5
2FD
330
BC
100
AcDbEntity
  8
ZUWAKU
  6
Continuous
 62
     7
370
    13
100
AcDbLine
 10
183.990867
 20
133.285434
 30
0.0
 11
182.857165
 21
134.419137
 31
0.0
  0
LINE
  5
2FE
330
BC
100
AcDbEntity
  8
ZUWAKU
  6
Continuous
 62
     7
370
    13
100
AcDbLine
 10
182.322117
 20
134.954184
 30
0.0
 11
179.487551
 21
137.78875
 31
0.0
  0
LINE
  5
2FF
330
BC
100
AcDbEntity
  8
ZUWAKU
  6
Continuous
 62
     7
370
    13
100
AcDbLine
 10
183.990867
 20
133.144013
 30
0.0
 11
182.765503
 21
134.369377
 31
0.0
  0
LINE
  5
300
330
BC
100
AcDbEntity
  8
ZUWAKU
  6
Continuous
 62
     7
370
    13
100
AcDbLine
 10
182.322117
 20
134.812763
 30
0.0
 11
179.34613
 21
137.78875
 31
0.0
  0
LINE
  5
301
330
BC
100
AcDbEntity
  8
ZUWAKU
  6
Continuous
 62
     7
370
    13
100
AcDbLine
 10
183.97201
 20
133.021449
 30
0.0
 11
182.652577
 21
134.340882
 31
0.0
  0
LINE
  5
302
330
BC
100
AcDbEntity
  8
ZUWAKU
  6
Continuous
 62
     7
370
    13
100
AcDbLine
 10
182.322999
 20
134.67046
 30
0.0
 11
179.204709
 21
137.78875
 31
0.0
  0
LINE
  5
303
330
BC
100
AcDbEntity
  8
ZUWAKU
  6
Continuous
 62
     7
370
    13
100
AcDbLine
 10
183.936601
 20
132.915436
 30
0.0
 11
179.068693
 21
137.783345
 31
0.0
  0
LINE
  5
304
330
BC
100
AcDbEntity
  8
ZUWAKU
  6
Continuous
 62
     7
370
    13
100
AcDbLine
 10
183.879955
 20
132.83066
 30
0.0
 11
178.950735
 21
137.759881
 31
0.0
  0
LINE
  5
305
330
BC
100
AcDbEntity
  8
ZUWAKU
  6
Continuous
 62
     7
370
    13
100
AcDbLine
 10
183.804827
 20
132.764368
 30
0.0
 11
178.858881
 21
137.710314
 31
0.0
  0
LINE
  5
306
330
BC
100
AcDbEntity
  8
ZUWAKU
  6
Continuous
 62
     7
370
    13
100
AcDbLine
 10
183.720051
 20
132.707723
 30
0.0
 11
178.776461
 21
137.651313
 31
0.0
  0
LINE
  5
307
330
BC
100
AcDbEntity
  8
ZUWAKU
  6
Continuous
 62
     7
370
    13
100
AcDbLine
 10
183.603615
 20
132.682737
 30
0.0
 11
178.719815
 21
137.566537
 31
0.0
  0
LINE
  5
308
330
BC
100
AcDbEntity
  8
ZUWAKU
  6
Continuous
 62
     7
370
    13
100
AcDbLine
 10
183.47368
 20
132.67125
 30
0.0
 11
178.675806
 21
137.469125
 31
0.0
  0
LINE
  5
309
330
BC
100
AcDbEntity
  8
ZUWAKU
  6
Continuous
 62
     7
370
    13
100
AcDbLine
 10
183.332259
 20
132.67125
 30
0.0
 11
178.652342
 21
137.351167
 31
0.0
  0
LINE
  5
30A
330
BC
100
AcDbEntity
  8
ZUWAKU
  6
Continuous
 62
     7
370
    13
100
AcDbLine
 10
183.190838
 20
132.67125
 30
0.0
 11
178.650867
 21
137.211221
 31
0.0
  0
LINE
  5
30B
330
BC
100
AcDbEntity
  8
ZUWAKU
  6
Continuous
 62
     7
370
    13
100
AcDbLine
 10
183.049416
 20
132.67125
 30
0.0
 11
178.650867
 21
137.069799
 31
0.0
  0
LINE
  5
30C
330
BC
100
AcDbEntity
  8
ZUWAKU
  6
Continuous
 62
     7
370
    13
100
AcDbLine
 10
182.907995
 20
132.67125
 30
0.0
 11
178.650867
 21
136.928378
 31
0.0
  0
LINE
  5
30D
330
BC
100
AcDbEntity
  8
ZUWAKU
  6
Continuous
 62
     7
370
    13
100
AcDbLine
 10
182.766574
 20
132.67125
 30
0.0
 11
178.650867
 21
136.786957
 31
0.0
  0
LINE
  5
30E
330
BC
100
AcDbEntity
  8
ZUWAKU
  6
Continuous
 62
     7
370
    13
100
AcDbLine
 10
182.625152
 20
132.67125
 30
0.0
 11
178.650867
 21
136.645535
 31
0.0
  0
LINE
  5
30F
330
BC
100
AcDbEntity
  8
ZUWAKU
  6
Continuous
 62
     7
370
    13
100
AcDbLine
 10
182.483731
 20
132.67125
 30
0.0
 11
178.650867
 21
136.504114
 31
0.0
  0
LINE
  5
310
330
BC
100
AcDbEntity
  8
ZUWAKU
  6
Continuous
 62
     7
370
    13
100
AcDbLine
 10
182.34231
 20
132.67125
 30
0.0
 11
178.650867
 21
136.362693
 31
0.0
  0
LINE
  5
311
330
BC
100
AcDbEntity
  8
ZUWAKU
  6
Continuous
 62
     7
370
    13
100
AcDbLine
 10
182.200888
 20
132.67125
 30
0.0
 11
178.650867
 21
136.221271
 31
0.0
  0
LINE
  5
312
330
BC
100
AcDbEntity
  8
ZUWAKU
  6
Continuous
 62
     7
370
    13
100
AcDbLine
 10
182.059467
 20
132.67125
 30
0.0
 11
178.650867
 21
136.07985
 31
0.0
  0
LINE
  5
313
330
BC
100
AcDbEntity
  8
ZUWAKU
  6
Continuous
 62
     7
370
    13
100
AcDbLine
 10
181.918046
 20
132.67125
 30
0.0
 11
178.650867
 21
135.938429
 31
0.0
  0
LINE
  5
314
330
BC
100
AcDbEntity
  8
ZUWAKU
  6
Continuous
 62
     7
370
    13
100
AcDbLine
 10
181.776624
 20
132.67125
 30
0.0
 11
178.650867
 21
135.797007
 31
0.0
  0
LINE
  5
315
330
BC
100
AcDbEntity
  8
ZUWAKU
  6
Continuous
 62
     7
370
    13
100
AcDbLine
 10
181.635203
 20
132.67125
 30
0.0
 11
178.650867
 21
135.655586
 31
0.0
  0
LINE
  5
316
330
BC
100
AcDbEntity
  8
ZUWAKU
  6
Continuous
 62
     7
370
    13
100
AcDbLine
 10
181.493782
 20
132.67125
 30
0.0
 11
178.650867
 21
135.514165
 31
0.0
  0
LINE
  5
317
330
BC
100
AcDbEntity
  8
ZUWAKU
  6
Continuous
 62
     7
370
    13
100
AcDbLine
 10
181.35236
 20
132.67125
 30
0.0
 11
178.650867
 21
135.372743
 31
0.0
  0
LINE
  5
318
330
BC
100
AcDbEntity
  8
ZUWAKU
  6
Continuous
 62
     7
370
    13
100
AcDbLine
 10
181.210939
 20
132.67125
 30
0.0
 11
178.650867
 21
135.231322
 31
0.0
  0
LINE
  5
319
330
BC
100
AcDbEntity
  8
ZUWAKU
  6
Continuous
 62
     7
370
    13
100
AcDbLine
 10
181.069517
 20
132.67125
 30
0.0
 11
178.650867
 21
135.0899
 31
0.0
  0
LINE
  5
31A
330
BC
100
AcDbEntity
  8
ZUWAKU
  6
Continuous
 62
     7
370
    13
100
AcDbLine
 10
180.928096
 20
132.67125
 30
0.0
 11
178.650867
 21
134.948479
 31
0.0
  0
LINE
  5
31B
330
BC
100
AcDbEntity
  8
ZUWAKU
  6
Continuous
 62
     7
370
    13
100
AcDbLine
 10
180.875867
 20
132.582058
 30
0.0
 11
178.650867
 21
134.807058
 31
0.0
  0
LINE
  5
31C
330
BC
100
AcDbEntity
  8
ZUWAKU
  6
Continuous
 62
     7
370
    13
100
AcDbLine
 10
180.875867
 20
132.440636
 30
0.0
 11
178.650867
 21
134.665636
 31
0.0
  0
LINE
  5
31D
330
BC
100
AcDbEntity
  8
ZUWAKU
  6
Continuous
 62
     7
370
    13
100
AcDbLine
 10
180.875867
 20
132.299215
 30
0.0
 11
178.650867
 21
134.524215
 31
0.0
  0
LINE
  5
31E
330
BC
100
AcDbEntity
  8
ZUWAKU
  6
Continuous
 62
     7
370
    13
100
AcDbLine
 10
180.875867
 20
132.157794
 30
0.0
 11
178.650867
 21
134.382794
 31
0.0
  0
LINE
  5
31F
330
BC
100
AcDbEntity
  8
ZUWAKU
  6
Continuous
 62
     7
370
    13
100
AcDbLine
 10
180.875867
 20
132.016372
 30
0.0
 11
178.650867
 21
134.241372
 31
0.0
  0
LINE
  5
320
330
BC
100
AcDbEntity
  8
ZUWAKU
  6
Continuous
 62
     7
370
    13
100
AcDbLine
 10
180.875867
 20
131.874951
 30
0.0
 11
178.650867
 21
134.099951
 31
0.0
  0
LINE
  5
321
330
BC
100
AcDbEntity
  8
ZUWAKU
  6
Continuous
 62
     7
370
    13
100
AcDbLine
 10
180.875867
 20
131.73353
 30
0.0
 11
178.650867
 21
133.95853
 31
0.0
  0
LINE
  5
322
330
BC
100
AcDbEntity
  8
ZUWAKU
  6
Continuous
 62
     7
370
    13
100
AcDbLine
 10
180.875867
 20
131.592108
 30
0.0
 11
178.650867
 21
133.817108
 31
0.0
  0
LINE
  5
323
330
BC
100
AcDbEntity
  8
ZUWAKU
  6
Continuous
 62
     7
370
    13
100
AcDbLine
 10
180.875867
 20
131.450687
 30
0.0
 11
178.650867
 21
133.675687
 31
0.0
  0
LINE
  5
324
330
BC
100
AcDbEntity
  8
ZUWAKU
  6
Continuous
 62
     7
370
    13
100
AcDbLine
 10
180.875867
 20
131.309266
 30
0.0
 11
178.650867
 21
133.534266
 31
0.0
  0
LINE
  5
325
330
BC
100
AcDbEntity
  8
ZUWAKU
  6
Continuous
 62
     7
370
    13
100
AcDbLine
 10
180.875867
 20
131.167844
 30
0.0
 11
178.650867
 21
133.392844
 31
0.0
  0
LINE
  5
326
330
BC
100
AcDbEntity
  8
ZUWAKU
  6
Continuous
 62
     7
370
    13
100
AcDbLine
 10
180.875867
 20
131.026423
 30
0.0
 11
178.650867
 21
133.251423
 31
0.0
  0
LINE
  5
327
330
BC
100
AcDbEntity
  8
ZUWAKU
  6
Continuous
 62
     7
370
    13
100
AcDbLine
 10
180.875867
 20
130.885001
 30
0.0
 11
178.650867
 21
133.110001
 31
0.0
  0
LINE
  5
328
330
BC
100
AcDbEntity
  8
ZUWAKU
  6
Continuous
 62
     7
370
    13
100
AcDbLine
 10
180.875867
 20
130.74358
 30
0.0
 11
178.650867
 21
132.96858
 31
0.0
  0
LINE
  5
329
330
BC
100
AcDbEntity
  8
ZUWAKU
  6
Continuous
 62
     7
370
    13
100
AcDbLine
 10
180.875867
 20
130.602159
 30
0.0
 11
178.650867
 21
132.827159
 31
0.0
  0
LINE
  5
32A
330
BC
100
AcDbEntity
  8
ZUWAKU
  6
Continuous
 62
     7
370
    13
100
AcDbLine
 10
180.875867
 20
130.460737
 30
0.0
 11
178.650867
 21
132.685737
 31
0.0
  0
LINE
  5
32B
330
BC
100
AcDbEntity
  8
ZUWAKU
  6
Continuous
 62
     7
370
    13
100
AcDbLine
 10
180.854807
 20
130.340376
 30
0.0
 11
178.650867
 21
132.544316
 31
0.0
  0
LINE
  5
32C
330
BC
100
AcDbEntity
  8
ZUWAKU
  6
Continuous
 62
     7
370
    13
100
AcDbLine
 10
180.816283
 20
130.237478
 30
0.0
 11
178.650867
 21
132.402895
 31
0.0
  0
LINE
  5
32D
330
BC
100
AcDbEntity
  8
ZUWAKU
  6
Continuous
 62
     7
370
    13
100
AcDbLine
 10
180.759638
 20
130.152702
 30
0.0
 11
178.650867
 21
132.261473
 31
0.0
  0
LINE
  5
32E
330
BC
100
AcDbEntity
  8
ZUWAKU
  6
Continuous
 62
     7
370
    13
100
AcDbLine
 10
180.681868
 20
130.089051
 30
0.0
 11
178.650867
 21
132.120052
 31
0.0
  0
LINE
  5
32F
330
BC
100
AcDbEntity
  8
ZUWAKU
  6
Continuous
 62
     7
370
    13
100
AcDbLine
 10
180.5955
 20
130.033998
 30
0.0
 11
178.650867
 21
131.978631
 31
0.0
  0
LINE
  5
330
330
BC
100
AcDbEntity
  8
ZUWAKU
  6
Continuous
 62
     7
370
    13
100
AcDbLine
 10
180.477542
 20
130.010534
 30
0.0
 11
178.650867
 21
131.837209
 31
0.0
  0
LINE
  5
331
330
BC
100
AcDbEntity
  8
ZUWAKU
  6
Continuous
 62
     7
370
    13
100
AcDbLine
 10
180.345405
 20
130.00125
 30
0.0
 11
178.650867
 21
131.695788
 31
0.0
  0
LINE
  5
332
330
BC
100
AcDbEntity
  8
ZUWAKU
  6
Continuous
 62
     7
370
    13
100
AcDbLine
 10
180.203984
 20
130.00125
 30
0.0
 11
178.650867
 21
131.554367
 31
0.0
  0
LINE
  5
333
330
BC
100
AcDbEntity
  8
ZUWAKU
  6
Continuous
 62
     7
370
    13
100
AcDbLine
 10
180.062562
 20
130.00125
 30
0.0
 11
178.650867
 21
131.412945
 31
0.0
  0
LINE
  5
334
330
BC
100
AcDbEntity
  8
ZUWAKU
  6
Continuous
 62
     7
370
    13
100
AcDbLine
 10
179.921141
 20
130.00125
 30
0.0
 11
178.650867
 21
131.271524
 31
0.0
  0
LINE
  5
335
330
BC
100
AcDbEntity
  8
ZUWAKU
  6
Continuous
 62
     7
370
    13
100
AcDbLine
 10
179.779719
 20
130.00125
 30
0.0
 11
178.650867
 21
131.130102
 31
0.0
  0
LINE
  5
336
330
BC
100
AcDbEntity
  8
ZUWAKU
  6
Continuous
 62
     7
370
    13
100
AcDbLine
 10
179.638298
 20
130.00125
 30
0.0
 11
178.650867
 21
130.988681
 31
0.0
  0
LINE
  5
337
330
BC
100
AcDbEntity
  8
ZUWAKU
  6
Continuous
 62
     7
370
    13
100
AcDbLine
 10
179.496877
 20
130.00125
 30
0.0
 11
178.650867
 21
130.84726
 31
0.0
  0
LINE
  5
338
330
BC
100
AcDbEntity
  8
ZUWAKU
  6
Continuous
 62
     7
370
    13
100
AcDbLine
 10
179.355455
 20
130.00125
 30
0.0
 11
178.650867
 21
130.705838
 31
0.0
  0
LINE
  5
339
330
BC
100
AcDbEntity
  8
ZUWAKU
  6
Continuous
 62
     7
370
    13
100
AcDbLine
 10
179.214034
 20
130.00125
 30
0.0
 11
178.650867
 21
130.564417
 31
0.0
  0
LINE
  5
33A
330
BC
100
AcDbEntity
  8
ZUWAKU
  6
Continuous
 62
     7
370
    13
100
AcDbLine
 10
179.066839
 20
130.007024
 30
0.0
 11
178.656641
 21
130.417222
 31
0.0
  0
LINE
  5
33B
330
BC
100
AcDbEntity
  8
ZUWAKU
  6
Continuous
 62
     7
370
    13
100
AcDbLine
 10
178.840421
 20
130.09202
 30
0.0
 11
178.741637
 21
130.190804
 31
0.0
  0
ENDBLK
  5
BE
330
BC
100
AcDbEntity
  8
0
100
AcDbBlockEnd
  0
BLOCK
  5
C0
330
BF
100
AcDbEntity
  8
0
100
AcDbBlockBegin
  2
DC_GROUP_HFB-3M_4
 70
     0
 10
0.0
 20
0.0
 30
0.0
  3
DC_GROUP_HFB-3M_4
  1

  0
LINE
  5
33C
330
BF
100
AcDbEntity
  8
ZUWAKU
  6
Continuous
 62
     7
370
    13
100
AcDbLine
 10
189.690797
 20
130.028587
 30
0.0
 11
189.97103
 21
130.30882
 31
0.0
  0
LINE
  5
33D
330
BF
100
AcDbEntity
  8
ZUWAKU
  6
Continuous
 62
     7
370
    13
100
AcDbLine
 10
189.522039
 20
130.00125
 30
0.0
 11
189.998367
 21
130.477578
 31
0.0
  0
LINE
  5
33E
330
BF
100
AcDbEntity
  8
ZUWAKU
  6
Continuous
 62
     7
370
    13
100
AcDbLine
 10
189.380618
 20
130.00125
 30
0.0
 11
189.998367
 21
130.618999
 31
0.0
  0
LINE
  5
33F
330
BF
100
AcDbEntity
  8
ZUWAKU
  6
Continuous
 62
     7
370
    13
100
AcDbLine
 10
189.239197
 20
130.00125
 30
0.0
 11
189.998367
 21
130.76042
 31
0.0
  0
LINE
  5
340
330
BF
100
AcDbEntity
  8
ZUWAKU
  6
Continuous
 62
     7
370
    13
100
AcDbLine
 10
189.097775
 20
130.00125
 30
0.0
 11
189.998367
 21
130.901842
 31
0.0
  0
LINE
  5
341
330
BF
100
AcDbEntity
  8
ZUWAKU
  6
Continuous
 62
     7
370
    13
100
AcDbLine
 10
188.956354
 20
130.00125
 30
0.0
 11
189.998367
 21
131.043263
 31
0.0
  0
LINE
  5
342
330
BF
100
AcDbEntity
  8
ZUWAKU
  6
Continuous
 62
     7
370
    13
100
AcDbLine
 10
188.814933
 20
130.00125
 30
0.0
 11
189.998367
 21
131.184684
 31
0.0
  0
LINE
  5
343
330
BF
100
AcDbEntity
  8
ZUWAKU
  6
Continuous
 62
     7
370
    13
100
AcDbLine
 10
188.673511
 20
130.00125
 30
0.0
 11
189.998367
 21
131.326106
 31
0.0
  0
LINE
  5
344
330
BF
100
AcDbEntity
  8
ZUWAKU
  6
Continuous
 62
     7
370
    13
100
AcDbLine
 10
188.53209
 20
130.00125
 30
0.0
 11
189.998367
 21
131.467527
 31
0.0
  0
LINE
  5
345
330
BF
100
AcDbEntity
  8
ZUWAKU
  6
Continuous
 62
     7
370
    13
100
AcDbLine
 10
188.390669
 20
130.00125
 30
0.0
 11
189.998367
 21
131.608948
 31
0.0
  0
LINE
  5
346
330
BF
100
AcDbEntity
  8
ZUWAKU
  6
Continuous
 62
     7
370
    13
100
AcDbLine
 10
188.249247
 20
130.00125
 30
0.0
 11
189.998367
 21
131.75037
 31
0.0
  0
LINE
  5
347
330
BF
100
AcDbEntity
  8
ZUWAKU
  6
Continuous
 62
     7
370
    13
100
AcDbLine
 10
188.107826
 20
130.00125
 30
0.0
 11
189.998367
 21
131.891791
 31
0.0
  0
LINE
  5
348
330
BF
100
AcDbEntity
  8
ZUWAKU
  6
Continuous
 62
     7
370
    13
100
AcDbLine
 10
187.966404
 20
130.00125
 30
0.0
 11
189.998367
 21
132.033213
 31
0.0
  0
LINE
  5
349
330
BF
100
AcDbEntity
  8
ZUWAKU
  6
Continuous
 62
     7
370
    13
100
AcDbLine
 10
187.824983
 20
130.00125
 30
0.0
 11
189.998367
 21
132.174634
 31
0.0
  0
LINE
  5
34A
330
BF
100
AcDbEntity
  8
ZUWAKU
  6
Continuous
 62
     7
370
    13
100
AcDbLine
 10
187.683562
 20
130.00125
 30
0.0
 11
189.998367
 21
132.316055
 31
0.0
  0
LINE
  5
34B
330
BF
100
AcDbEntity
  8
ZUWAKU
  6
Continuous
 62
     7
370
    13
100
AcDbLine
 10
187.54214
 20
130.00125
 30
0.0
 11
189.978462
 21
132.437571
 31
0.0
  0
LINE
  5
34C
330
BF
100
AcDbEntity
  8
ZUWAKU
  6
Continuous
 62
     7
370
    13
100
AcDbLine
 10
187.400719
 20
130.00125
 30
0.0
 11
189.94157
 21
132.542101
 31
0.0
  0
LINE
  5
34D
330
BF
100
AcDbEntity
  8
ZUWAKU
  6
Continuous
 62
     7
370
    13
100
AcDbLine
 10
187.259298
 20
130.00125
 30
0.0
 11
189.884925
 21
132.626877
 31
0.0
  0
LINE
  5
34E
330
BF
100
AcDbEntity
  8
ZUWAKU
  6
Continuous
 62
     7
370
    13
100
AcDbLine
 10
187.117876
 20
130.00125
 30
0.0
 11
189.808539
 21
132.691913
 31
0.0
  0
LINE
  5
34F
330
BF
100
AcDbEntity
  8
ZUWAKU
  6
Continuous
 62
     7
370
    13
100
AcDbLine
 10
186.976455
 20
130.00125
 30
0.0
 11
189.723763
 21
132.748558
 31
0.0
  0
LINE
  5
350
330
BF
100
AcDbEntity
  8
ZUWAKU
  6
Continuous
 62
     7
370
    13
100
AcDbLine
 10
186.835034
 20
130.00125
 30
0.0
 11
189.605845
 21
132.772061
 31
0.0
  0
LINE
  5
351
330
BF
100
AcDbEntity
  8
ZUWAKU
  6
Continuous
 62
     7
370
    13
100
AcDbLine
 10
186.693612
 20
130.00125
 30
0.0
 11
189.474862
 21
132.7825
 31
0.0
  0
LINE
  5
352
330
BF
100
AcDbEntity
  8
ZUWAKU
  6
Continuous
 62
     7
370
    13
100
AcDbLine
 10
186.552191
 20
130.00125
 30
0.0
 11
189.333441
 21
132.7825
 31
0.0
  0
LINE
  5
353
330
BF
100
AcDbEntity
  8
ZUWAKU
  6
Continuous
 62
     7
370
    13
100
AcDbLine
 10
186.41077
 20
130.00125
 30
0.0
 11
189.19202
 21
132.7825
 31
0.0
  0
LINE
  5
354
330
BF
100
AcDbEntity
  8
ZUWAKU
  6
Continuous
 62
     7
370
    13
100
AcDbLine
 10
186.269348
 20
130.00125
 30
0.0
 11
189.050598
 21
132.7825
 31
0.0
  0
LINE
  5
355
330
BF
100
AcDbEntity
  8
ZUWAKU
  6
Continuous
 62
     7
370
    13
100
AcDbLine
 10
189.80898
 20
133.540882
 30
0.0
 11
189.907485
 21
133.639387
 31
0.0
  0
LINE
  5
356
330
BF
100
AcDbEntity
  8
ZUWAKU
  6
Continuous
 62
     7
370
    13
100
AcDbLine
 10
186.127927
 20
130.00125
 30
0.0
 11
188.909177
 21
132.7825
 31
0.0
  0
LINE
  5
357
330
BF
100
AcDbEntity
  8
ZUWAKU
  6
Continuous
 62
     7
370
    13
100
AcDbLine
 10
189.582465
 20
133.455788
 30
0.0
 11
189.992579
 21
133.865902
 31
0.0
  0
LINE
  5
358
330
BF
100
AcDbEntity
  8
ZUWAKU
  6
Continuous
 62
     7
370
    13
100
AcDbLine
 10
185.986505
 20
130.00125
 30
0.0
 11
188.767755
 21
132.7825
 31
0.0
  0
LINE
  5
359
330
BF
100
AcDbEntity
  8
ZUWAKU
  6
Continuous
 62
     7
370
    13
100
AcDbLine
 10
189.435255
 20
133.45
 30
0.0
 11
189.998367
 21
134.013112
 31
0.0
  0
LINE
  5
35A
330
BF
100
AcDbEntity
  8
ZUWAKU
  6
Continuous
 62
     7
370
    13
100
AcDbLine
 10
185.845084
 20
130.00125
 30
0.0
 11
188.626334
 21
132.7825
 31
0.0
  0
LINE
  5
35B
330
BF
100
AcDbEntity
  8
ZUWAKU
  6
Continuous
 62
     7
370
    13
100
AcDbLine
 10
189.293834
 20
133.45
 30
0.0
 11
189.998367
 21
134.154533
 31
0.0
  0
LINE
  5
35C
330
BF
100
AcDbEntity
  8
ZUWAKU
  6
Continuous
 62
     7
370
    13
100
AcDbLine
 10
185.703663
 20
130.00125
 30
0.0
 11
188.484913
 21
132.7825
 31
0.0
  0
LINE
  5
35D
330
BF
100
AcDbEntity
  8
ZUWAKU
  6
Continuous
 62
     7
370
    13
100
AcDbLine
 10
189.152413
 20
133.45
 30
0.0
 11
189.998367
 21
134.295954
 31
0.0
  0
LINE
  5
35E
330
BF
100
AcDbEntity
  8
ZUWAKU
  6
Continuous
 62
     7
370
    13
100
AcDbLine
 10
185.562241
 20
130.00125
 30
0.0
 11
188.364069
 21
132.803078
 31
0.0
  0
LINE
  5
35F
330
BF
100
AcDbEntity
  8
ZUWAKU
  6
Continuous
 62
     7
370
    13
100
AcDbLine
 10
189.010991
 20
133.45
 30
0.0
 11
189.998367
 21
134.437376
 31
0.0
  0
LINE
  5
360
330
BF
100
AcDbEntity
  8
ZUWAKU
  6
Continuous
 62
     7
370
    13
100
AcDbLine
 10
185.42082
 20
130.00125
 30
0.0
 11
188.260388
 21
132.840818
 31
0.0
  0
LINE
  5
361
330
BF
100
AcDbEntity
  8
ZUWAKU
  6
Continuous
 62
     7
370
    13
100
AcDbLine
 10
188.86957
 20
133.45
 30
0.0
 11
189.998367
 21
134.578797
 31
0.0
  0
LINE
  5
362
330
BF
100
AcDbEntity
  8
ZUWAKU
  6
Continuous
 62
     7
370
    13
100
AcDbLine
 10
185.279399
 20
130.00125
 30
0.0
 11
188.189677
 21
132.911529
 31
0.0
  0
LINE
  5
363
330
BF
100
AcDbEntity
  8
ZUWAKU
  6
Continuous
 62
     7
370
    13
100
AcDbLine
 10
188.728149
 20
133.45
 30
0.0
 11
189.998367
 21
134.720218
 31
0.0
  0
LINE
  5
364
330
BF
100
AcDbEntity
  8
ZUWAKU
  6
Continuous
 62
     7
370
    13
100
AcDbLine
 10
185.137977
 20
130.00125
 30
0.0
 11
188.137941
 21
133.001214
 31
0.0
  0
LINE
  5
365
330
BF
100
AcDbEntity
  8
ZUWAKU
  6
Continuous
 62
     7
370
    13
100
AcDbLine
 10
188.586727
 20
133.45
 30
0.0
 11
189.998367
 21
134.86164
 31
0.0
  0
LINE
  5
366
330
BF
100
AcDbEntity
  8
ZUWAKU
  6
Continuous
 62
     7
370
    13
100
AcDbLine
 10
185.014277
 20
130.018971
 30
0.0
 11
188.108055
 21
133.112749
 31
0.0
  0
LINE
  5
367
330
BF
100
AcDbEntity
  8
ZUWAKU
  6
Continuous
 62
     7
370
    13
100
AcDbLine
 10
188.445306
 20
133.45
 30
0.0
 11
189.998367
 21
135.003061
 31
0.0
  0
LINE
  5
368
330
BF
100
AcDbEntity
  8
ZUWAKU
  6
Continuous
 62
     7
370
    13
100
AcDbLine
 10
184.906658
 20
130.052773
 30
0.0
 11
189.998367
 21
135.144482
 31
0.0
  0
LINE
  5
369
330
BF
100
AcDbEntity
  8
ZUWAKU
  6
Continuous
 62
     7
370
    13
100
AcDbLine
 10
184.821882
 20
130.109419
 30
0.0
 11
189.989092
 21
135.276629
 31
0.0
  0
LINE
  5
36A
330
BF
100
AcDbEntity
  8
ZUWAKU
  6
Continuous
 62
     7
370
    13
100
AcDbLine
 10
184.754228
 20
130.183186
 30
0.0
 11
189.965629
 21
135.394587
 31
0.0
  0
LINE
  5
36B
330
BF
100
AcDbEntity
  8
ZUWAKU
  6
Continuous
 62
     7
370
    13
100
AcDbLine
 10
184.697582
 20
130.267962
 30
0.0
 11
189.910589
 21
135.480968
 31
0.0
  0
LINE
  5
36C
330
BF
100
AcDbEntity
  8
ZUWAKU
  6
Continuous
 62
     7
370
    13
100
AcDbLine
 10
184.67099
 20
130.382791
 30
0.0
 11
189.846948
 21
135.558749
 31
0.0
  0
LINE
  5
36D
330
BF
100
AcDbEntity
  8
ZUWAKU
  6
Continuous
 62
     7
370
    13
100
AcDbLine
 10
184.658367
 20
130.511589
 30
0.0
 11
189.762172
 21
135.615394
 31
0.0
  0
LINE
  5
36E
330
BF
100
AcDbEntity
  8
ZUWAKU
  6
Continuous
 62
     7
370
    13
100
AcDbLine
 10
184.658367
 20
130.653011
 30
0.0
 11
189.659288
 21
135.653931
 31
0.0
  0
LINE
  5
36F
330
BF
100
AcDbEntity
  8
ZUWAKU
  6
Continuous
 62
     7
370
    13
100
AcDbLine
 10
184.658367
 20
130.794432
 30
0.0
 11
189.538935
 21
135.675
 31
0.0
  0
LINE
  5
370
330
BF
100
AcDbEntity
  8
ZUWAKU
  6
Continuous
 62
     7
370
    13
100
AcDbLine
 10
184.658367
 20
130.935853
 30
0.0
 11
189.397514
 21
135.675
 31
0.0
  0
LINE
  5
371
330
BF
100
AcDbEntity
  8
ZUWAKU
  6
Continuous
 62
     7
370
    13
100
AcDbLine
 10
184.658367
 20
131.077275
 30
0.0
 11
189.256092
 21
135.675
 31
0.0
  0
LINE
  5
372
330
BF
100
AcDbEntity
  8
ZUWAKU
  6
Continuous
 62
     7
370
    13
100
AcDbLine
 10
184.658367
 20
131.218696
 30
0.0
 11
189.114671
 21
135.675
 31
0.0
  0
LINE
  5
373
330
BF
100
AcDbEntity
  8
ZUWAKU
  6
Continuous
 62
     7
370
    13
100
AcDbLine
 10
184.658367
 20
131.360117
 30
0.0
 11
188.97325
 21
135.675
 31
0.0
  0
LINE
  5
374
330
BF
100
AcDbEntity
  8
ZUWAKU
  6
Continuous
 62
     7
370
    13
100
AcDbLine
 10
189.662447
 20
136.364197
 30
0.0
 11
189.97667
 21
136.67842
 31
0.0
  0
LINE
  5
375
330
BF
100
AcDbEntity
  8
ZUWAKU
  6
Continuous
 62
     7
370
    13
100
AcDbLine
 10
184.658367
 20
131.501539
 30
0.0
 11
188.831828
 21
135.675
 31
0.0
  0
LINE
  5
376
330
BF
100
AcDbEntity
  8
ZUWAKU
  6
Continuous
 62
     7
370
    13
100
AcDbLine
 10
189.499328
 20
136.3425
 30
0.0
 11
189.998367
 21
136.841539
 31
0.0
  0
LINE
  5
377
330
BF
100
AcDbEntity
  8
ZUWAKU
  6
Continuous
 62
     7
370
    13
100
AcDbLine
 10
184.658367
 20
131.64296
 30
0.0
 11
188.690407
 21
135.675
 31
0.0
  0
LINE
  5
378
330
BF
100
AcDbEntity
  8
ZUWAKU
  6
Continuous
 62
     7
370
    13
100
AcDbLine
 10
189.357907
 20
136.3425
 30
0.0
 11
189.998367
 21
136.98296
 31
0.0
  0
LINE
  5
379
330
BF
100
AcDbEntity
  8
ZUWAKU
  6
Continuous
 62
     7
370
    13
100
AcDbLine
 10
184.658367
 20
131.784381
 30
0.0
 11
188.548986
 21
135.675
 31
0.0
  0
LINE
  5
37A
330
BF
100
AcDbEntity
  8
ZUWAKU
  6
Continuous
 62
     7
370
    13
100
AcDbLine
 10
189.216486
 20
136.3425
 30
0.0
 11
189.998367
 21
137.124381
 31
0.0
  0
LINE
  5
37B
330
BF
100
AcDbEntity
  8
ZUWAKU
  6
Continuous
 62
     7
370
    13
100
AcDbLine
 10
184.658367
 20
131.925803
 30
0.0
 11
188.414602
 21
135.682038
 31
0.0
  0
LINE
  5
37C
330
BF
100
AcDbEntity
  8
ZUWAKU
  6
Continuous
 62
     7
370
    13
100
AcDbLine
 10
189.075064
 20
136.3425
 30
0.0
 11
189.998367
 21
137.265803
 31
0.0
  0
LINE
  5
37D
330
BF
100
AcDbEntity
  8
ZUWAKU
  6
Continuous
 62
     7
370
    13
100
AcDbLine
 10
184.658367
 20
132.067224
 30
0.0
 11
188.303066
 21
135.711924
 31
0.0
  0
LINE
  5
37E
330
BF
100
AcDbEntity
  8
ZUWAKU
  6
Continuous
 62
     7
370
    13
100
AcDbLine
 10
188.933643
 20
136.3425
 30
0.0
 11
189.987836
 21
137.396693
 31
0.0
  0
LINE
  5
37F
330
BF
100
AcDbEntity
  8
ZUWAKU
  6
Continuous
 62
     7
370
    13
100
AcDbLine
 10
184.658367
 20
132.208645
 30
0.0
 11
188.221714
 21
135.771992
 31
0.0
  0
LINE
  5
380
330
BF
100
AcDbEntity
  8
ZUWAKU
  6
Continuous
 62
     7
370
    13
100
AcDbLine
 10
188.792222
 20
136.3425
 30
0.0
 11
189.964202
 21
137.51448
 31
0.0
  0
LINE
  5
381
330
BF
100
AcDbEntity
  8
ZUWAKU
  6
Continuous
 62
     7
370
    13
100
AcDbLine
 10
184.658367
 20
132.350067
 30
0.0
 11
188.151481
 21
135.843181
 31
0.0
  0
LINE
  5
382
330
BF
100
AcDbEntity
  8
ZUWAKU
  6
Continuous
 62
     7
370
    13
100
AcDbLine
 10
188.6508
 20
136.3425
 30
0.0
 11
189.907556
 21
137.599256
 31
0.0
  0
LINE
  5
383
330
BF
100
AcDbEntity
  8
ZUWAKU
  6
Continuous
 62
     7
370
    13
100
AcDbLine
 10
184.658367
 20
132.491488
 30
0.0
 11
188.121595
 21
135.954716
 31
0.0
  0
LINE
  5
384
330
BF
100
AcDbEntity
  8
ZUWAKU
  6
Continuous
 62
     7
370
    13
100
AcDbLine
 10
188.509379
 20
136.3425
 30
0.0
 11
189.84241
 21
137.675531
 31
0.0
  0
LINE
  5
385
330
BF
100
AcDbEntity
  8
ZUWAKU
  6
Continuous
 62
     7
370
    13
100
AcDbLine
 10
184.658367
 20
132.63291
 30
0.0
 11
188.133804
 21
136.108346
 31
0.0
  0
LINE
  5
386
330
BF
100
AcDbEntity
  8
ZUWAKU
  6
Continuous
 62
     7
370
    13
100
AcDbLine
 10
188.341271
 20
136.315813
 30
0.0
 11
189.757634
 21
137.732176
 31
0.0
  0
LINE
  5
387
330
BF
100
AcDbEntity
  8
ZUWAKU
  6
Continuous
 62
     7
370
    13
100
AcDbLine
 10
184.658367
 20
132.774331
 30
0.0
 11
189.652973
 21
137.768937
 31
0.0
  0
LINE
  5
388
330
BF
100
AcDbEntity
  8
ZUWAKU
  6
Continuous
 62
     7
370
    13
100
AcDbLine
 10
184.658367
 20
132.915752
 30
0.0
 11
189.531365
 21
137.78875
 31
0.0
  0
LINE
  5
389
330
BF
100
AcDbEntity
  8
ZUWAKU
  6
Continuous
 62
     7
370
    13
100
AcDbLine
 10
184.658367
 20
133.057174
 30
0.0
 11
189.389943
 21
137.78875
 31
0.0
  0
LINE
  5
38A
330
BF
100
AcDbEntity
  8
ZUWAKU
  6
Continuous
 62
     7
370
    13
100
AcDbLine
 10
184.658367
 20
133.198595
 30
0.0
 11
189.248522
 21
137.78875
 31
0.0
  0
LINE
  5
38B
330
BF
100
AcDbEntity
  8
ZUWAKU
  6
Continuous
 62
     7
370
    13
100
AcDbLine
 10
184.658367
 20
133.340016
 30
0.0
 11
189.107101
 21
137.78875
 31
0.0
  0
LINE
  5
38C
330
BF
100
AcDbEntity
  8
ZUWAKU
  6
Continuous
 62
     7
370
    13
100
AcDbLine
 10
184.658367
 20
133.481438
 30
0.0
 11
188.965679
 21
137.78875
 31
0.0
  0
LINE
  5
38D
330
BF
100
AcDbEntity
  8
ZUWAKU
  6
Continuous
 62
     7
370
    13
100
AcDbLine
 10
184.658367
 20
133.622859
 30
0.0
 11
188.824258
 21
137.78875
 31
0.0
  0
LINE
  5
38E
330
BF
100
AcDbEntity
  8
ZUWAKU
  6
Continuous
 62
     7
370
    13
100
AcDbLine
 10
184.658367
 20
133.76428
 30
0.0
 11
188.682837
 21
137.78875
 31
0.0
  0
LINE
  5
38F
330
BF
100
AcDbEntity
  8
ZUWAKU
  6
Continuous
 62
     7
370
    13
100
AcDbLine
 10
184.658367
 20
133.905702
 30
0.0
 11
188.541415
 21
137.78875
 31
0.0
  0
LINE
  5
390
330
BF
100
AcDbEntity
  8
ZUWAKU
  6
Continuous
 62
     7
370
    13
100
AcDbLine
 10
184.658367
 20
134.047123
 30
0.0
 11
188.399994
 21
137.78875
 31
0.0
  0
LINE
  5
391
330
BF
100
AcDbEntity
  8
ZUWAKU
  6
Continuous
 62
     7
370
    13
100
AcDbLine
 10
184.658367
 20
134.188544
 30
0.0
 11
188.258573
 21
137.78875
 31
0.0
  0
LINE
  5
392
330
BF
100
AcDbEntity
  8
ZUWAKU
  6
Continuous
 62
     7
370
    13
100
AcDbLine
 10
184.658367
 20
134.329966
 30
0.0
 11
188.117151
 21
137.78875
 31
0.0
  0
LINE
  5
393
330
BF
100
AcDbEntity
  8
ZUWAKU
  6
Continuous
 62
     7
370
    13
100
AcDbLine
 10
184.658367
 20
134.471387
 30
0.0
 11
187.97573
 21
137.78875
 31
0.0
  0
LINE
  5
394
330
BF
100
AcDbEntity
  8
ZUWAKU
  6
Continuous
 62
     7
370
    13
100
AcDbLine
 10
184.658367
 20
134.612809
 30
0.0
 11
187.834308
 21
137.78875
 31
0.0
  0
LINE
  5
395
330
BF
100
AcDbEntity
  8
ZUWAKU
  6
Continuous
 62
     7
370
    13
100
AcDbLine
 10
184.658367
 20
134.75423
 30
0.0
 11
187.692887
 21
137.78875
 31
0.0
  0
LINE
  5
396
330
BF
100
AcDbEntity
  8
ZUWAKU
  6
Continuous
 62
     7
370
    13
100
AcDbLine
 10
184.658367
 20
134.895651
 30
0.0
 11
187.551466
 21
137.78875
 31
0.0
  0
LINE
  5
397
330
BF
100
AcDbEntity
  8
ZUWAKU
  6
Continuous
 62
     7
370
    13
100
AcDbLine
 10
184.658367
 20
135.037073
 30
0.0
 11
187.410044
 21
137.78875
 31
0.0
  0
LINE
  5
398
330
BF
100
AcDbEntity
  8
ZUWAKU
  6
Continuous
 62
     7
370
    13
100
AcDbLine
 10
184.658367
 20
135.178494
 30
0.0
 11
187.268623
 21
137.78875
 31
0.0
  0
LINE
  5
399
330
BF
100
AcDbEntity
  8
ZUWAKU
  6
Continuous
 62
     7
370
    13
100
AcDbLine
 10
184.658367
 20
135.319915
 30
0.0
 11
187.127202
 21
137.78875
 31
0.0
  0
LINE
  5
39A
330
BF
100
AcDbEntity
  8
ZUWAKU
  6
Continuous
 62
     7
370
    13
100
AcDbLine
 10
184.658367
 20
135.461337
 30
0.0
 11
186.98578
 21
137.78875
 31
0.0
  0
LINE
  5
39B
330
BF
100
AcDbEntity
  8
ZUWAKU
  6
Continuous
 62
     7
370
    13
100
AcDbLine
 10
184.658367
 20
135.602758
 30
0.0
 11
186.844359
 21
137.78875
 31
0.0
  0
LINE
  5
39C
330
BF
100
AcDbEntity
  8
ZUWAKU
  6
Continuous
 62
     7
370
    13
100
AcDbLine
 10
184.658367
 20
135.744179
 30
0.0
 11
186.702938
 21
137.78875
 31
0.0
  0
LINE
  5
39D
330
BF
100
AcDbEntity
  8
ZUWAKU
  6
Continuous
 62
     7
370
    13
100
AcDbLine
 10
184.658367
 20
135.885601
 30
0.0
 11
186.561516
 21
137.78875
 31
0.0
  0
LINE
  5
39E
330
BF
100
AcDbEntity
  8
ZUWAKU
  6
Continuous
 62
     7
370
    13
100
AcDbLine
 10
184.658367
 20
136.027022
 30
0.0
 11
186.420095
 21
137.78875
 31
0.0
  0
LINE
  5
39F
330
BF
100
AcDbEntity
  8
ZUWAKU
  6
Continuous
 62
     7
370
    13
100
AcDbLine
 10
184.658367
 20
136.168443
 30
0.0
 11
186.278674
 21
137.78875
 31
0.0
  0
LINE
  5
3A0
330
BF
100
AcDbEntity
  8
ZUWAKU
  6
Continuous
 62
     7
370
    13
100
AcDbLine
 10
184.658367
 20
136.309865
 30
0.0
 11
186.137252
 21
137.78875
 31
0.0
  0
LINE
  5
3A1
330
BF
100
AcDbEntity
  8
ZUWAKU
  6
Continuous
 62
     7
370
    13
100
AcDbLine
 10
184.658367
 20
136.451286
 30
0.0
 11
185.995831
 21
137.78875
 31
0.0
  0
LINE
  5
3A2
330
BF
100
AcDbEntity
  8
ZUWAKU
  6
Continuous
 62
     7
370
    13
100
AcDbLine
 10
184.658367
 20
136.592708
 30
0.0
 11
185.854409
 21
137.78875
 31
0.0
  0
LINE
  5
3A3
330
BF
100
AcDbEntity
  8
ZUWAKU
  6
Continuous
 62
     7
370
    13
100
AcDbLine
 10
184.658367
 20
136.734129
 30
0.0
 11
185.712988
 21
137.78875
 31
0.0
  0
LINE
  5
3A4
330
BF
100
AcDbEntity
  8
ZUWAKU
  6
Continuous
 62
     7
370
    13
100
AcDbLine
 10
184.658367
 20
136.87555
 30
0.0
 11
185.571567
 21
137.78875
 31
0.0
  0
LINE
  5
3A5
330
BF
100
AcDbEntity
  8
ZUWAKU
  6
Continuous
 62
     7
370
    13
100
AcDbLine
 10
184.658367
 20
137.016972
 30
0.0
 11
185.430145
 21
137.78875
 31
0.0
  0
LINE
  5
3A6
330
BF
100
AcDbEntity
  8
ZUWAKU
  6
Continuous
 62
     7
370
    13
100
AcDbLine
 10
184.658367
 20
137.158393
 30
0.0
 11
185.288724
 21
137.78875
 31
0.0
  0
LINE
  5
3A7
330
BF
100
AcDbEntity
  8
ZUWAKU
  6
Continuous
 62
     7
370
    13
100
AcDbLine
 10
184.658367
 20
137.299814
 30
0.0
 11
185.147303
 21
137.78875
 31
0.0
  0
LINE
  5
3A8
330
BF
100
AcDbEntity
  8
ZUWAKU
  6
Continuous
 62
     7
370
    13
100
AcDbLine
 10
184.682573
 20
137.465442
 30
0.0
 11
184.981675
 21
137.764544
 31
0.0
  0
LINE
  5
3A9
330
BF
100
AcDbEntity
  8
ZUWAKU
  6
Continuous
 62
     7
370
    13
100
AcDbLine
 10
189.987714
 20
137.397307
 30
0.0
 11
189.606924
 21
137.778097
 31
0.0
  0
LINE
  5
3AA
330
BF
100
AcDbEntity
  8
ZUWAKU
  6
Continuous
 62
     7
370
    13
100
AcDbLine
 10
189.998367
 20
137.245232
 30
0.0
 11
189.454849
 21
137.78875
 31
0.0
  0
LINE
  5
3AB
330
BF
100
AcDbEntity
  8
ZUWAKU
  6
Continuous
 62
     7
370
    13
100
AcDbLine
 10
189.998367
 20
137.103811
 30
0.0
 11
189.313428
 21
137.78875
 31
0.0
  0
LINE
  5
3AC
330
BF
100
AcDbEntity
  8
ZUWAKU
  6
Continuous
 62
     7
370
    13
100
AcDbLine
 10
189.998367
 20
136.96239
 30
0.0
 11
189.172007
 21
137.78875
 31
0.0
  0
LINE
  5
3AD
330
BF
100
AcDbEntity
  8
ZUWAKU
  6
Continuous
 62
     7
370
    13
100
AcDbLine
 10
189.998367
 20
136.820968
 30
0.0
 11
189.030585
 21
137.78875
 31
0.0
  0
LINE
  5
3AE
330
BF
100
AcDbEntity
  8
ZUWAKU
  6
Continuous
 62
     7
370
    13
100
AcDbLine
 10
189.980456
 20
136.697457
 30
0.0
 11
188.889164
 21
137.78875
 31
0.0
  0
LINE
  5
3AF
330
BF
100
AcDbEntity
  8
ZUWAKU
  6
Continuous
 62
     7
370
    13
100
AcDbLine
 10
189.946386
 20
136.590106
 30
0.0
 11
188.747743
 21
137.78875
 31
0.0
  0
LINE
  5
3B0
330
BF
100
AcDbEntity
  8
ZUWAKU
  6
Continuous
 62
     7
370
    13
100
AcDbLine
 10
189.889741
 20
136.505331
 30
0.0
 11
188.606321
 21
137.78875
 31
0.0
  0
LINE
  5
3B1
330
BF
100
AcDbEntity
  8
ZUWAKU
  6
Continuous
 62
     7
370
    13
100
AcDbLine
 10
189.815747
 20
136.437903
 30
0.0
 11
188.4649
 21
137.78875
 31
0.0
  0
LINE
  5
3B2
330
BF
100
AcDbEntity
  8
ZUWAKU
  6
Continuous
 62
     7
370
    13
100
AcDbLine
 10
189.730971
 20
136.381258
 30
0.0
 11
188.323478
 21
137.78875
 31
0.0
  0
LINE
  5
3B3
330
BF
100
AcDbEntity
  8
ZUWAKU
  6
Continuous
 62
     7
370
    13
100
AcDbLine
 10
189.615874
 20
136.354933
 30
0.0
 11
188.182057
 21
137.78875
 31
0.0
  0
LINE
  5
3B4
330
BF
100
AcDbEntity
  8
ZUWAKU
  6
Continuous
 62
     7
370
    13
100
AcDbLine
 10
189.486886
 20
136.3425
 30
0.0
 11
188.040636
 21
137.78875
 31
0.0
  0
LINE
  5
3B5
330
BF
100
AcDbEntity
  8
ZUWAKU
  6
Continuous
 62
     7
370
    13
100
AcDbLine
 10
189.345464
 20
136.3425
 30
0.0
 11
187.899214
 21
137.78875
 31
0.0
  0
LINE
  5
3B6
330
BF
100
AcDbEntity
  8
ZUWAKU
  6
Continuous
 62
     7
370
    13
100
AcDbLine
 10
189.204043
 20
136.3425
 30
0.0
 11
187.757793
 21
137.78875
 31
0.0
  0
LINE
  5
3B7
330
BF
100
AcDbEntity
  8
ZUWAKU
  6
Continuous
 62
     7
370
    13
100
AcDbLine
 10
189.883274
 20
135.521848
 30
0.0
 11
189.845215
 21
135.559907
 31
0.0
  0
LINE
  5
3B8
330
BF
100
AcDbEntity
  8
ZUWAKU
  6
Continuous
 62
     7
370
    13
100
AcDbLine
 10
189.062622
 20
136.3425
 30
0.0
 11
187.616372
 21
137.78875
 31
0.0
  0
LINE
  5
3B9
330
BF
100
AcDbEntity
  8
ZUWAKU
  6
Continuous
 62
     7
370
    13
100
AcDbLine
 10
189.989594
 20
135.274107
 30
0.0
 11
189.597474
 21
135.666227
 31
0.0
  0
LINE
  5
3BA
330
BF
100
AcDbEntity
  8
ZUWAKU
  6
Continuous
 62
     7
370
    13
100
AcDbLine
 10
188.9212
 20
136.3425
 30
0.0
 11
187.47495
 21
137.78875
 31
0.0
  0
LINE
  5
3BB
330
BF
100
AcDbEntity
  8
ZUWAKU
  6
Continuous
 62
     7
370
    13
100
AcDbLine
 10
189.998367
 20
135.123912
 30
0.0
 11
189.447279
 21
135.675
 31
0.0
  0
LINE
  5
3BC
330
BF
100
AcDbEntity
  8
ZUWAKU
  6
Continuous
 62
     7
370
    13
100
AcDbLine
 10
188.779779
 20
136.3425
 30
0.0
 11
187.333529
 21
137.78875
 31
0.0
  0
LINE
  5
3BD
330
BF
100
AcDbEntity
  8
ZUWAKU
  6
Continuous
 62
     7
370
    13
100
AcDbLine
 10
189.998367
 20
134.982491
 30
0.0
 11
189.305858
 21
135.675
 31
0.0
  0
LINE
  5
3BE
330
BF
100
AcDbEntity
  8
ZUWAKU
  6
Continuous
 62
     7
370
    13
100
AcDbLine
 10
188.638358
 20
136.3425
 30
0.0
 11
187.192108
 21
137.78875
 31
0.0
  0
LINE
  5
3BF
330
BF
100
AcDbEntity
  8
ZUWAKU
  6
Continuous
 62
     7
370
    13
100
AcDbLine
 10
189.998367
 20
134.841069
 30
0.0
 11
189.164436
 21
135.675
 31
0.0
  0
LINE
  5
3C0
330
BF
100
AcDbEntity
  8
ZUWAKU
  6
Continuous
 62
     7
370
    13
100
AcDbLine
 10
188.496936
 20
136.3425
 30
0.0
 11
187.050686
 21
137.78875
 31
0.0
  0
LINE
  5
3C1
330
BF
100
AcDbEntity
  8
ZUWAKU
  6
Continuous
 62
     7
370
    13
100
AcDbLine
 10
189.998367
 20
134.699648
 30
0.0
 11
189.023015
 21
135.675
 31
0.0
  0
LINE
  5
3C2
330
BF
100
AcDbEntity
  8
ZUWAKU
  6
Continuous
 62
     7
370
    13
100
AcDbLine
 10
188.373552
 20
136.324463
 30
0.0
 11
186.909265
 21
137.78875
 31
0.0
  0
LINE
  5
3C3
330
BF
100
AcDbEntity
  8
ZUWAKU
  6
Continuous
 62
     7
370
    13
100
AcDbLine
 10
189.998367
 20
134.558227
 30
0.0
 11
188.881594
 21
135.675
 31
0.0
  0
LINE
  5
3C4
330
BF
100
AcDbEntity
  8
ZUWAKU
  6
Continuous
 62
     7
370
    13
100
AcDbLine
 10
188.2664
 20
136.290194
 30
0.0
 11
186.767844
 21
137.78875
 31
0.0
  0
LINE
  5
3C5
330
BF
100
AcDbEntity
  8
ZUWAKU
  6
Continuous
 62
     7
370
    13
100
AcDbLine
 10
189.998367
 20
134.416805
 30
0.0
 11
188.740172
 21
135.675
 31
0.0
  0
LINE
  5
3C6
330
BF
100
AcDbEntity
  8
ZUWAKU
  6
Continuous
 62
     7
370
    13
100
AcDbLine
 10
188.195689
 20
136.219483
 30
0.0
 11
186.626422
 21
137.78875
 31
0.0
  0
LINE
  5
3C7
330
BF
100
AcDbEntity
  8
ZUWAKU
  6
Continuous
 62
     7
370
    13
100
AcDbLine
 10
189.998367
 20
134.275384
 30
0.0
 11
188.598751
 21
135.675
 31
0.0
  0
LINE
  5
3C8
330
BF
100
AcDbEntity
  8
ZUWAKU
  6
Continuous
 62
     7
370
    13
100
AcDbLine
 10
188.140482
 20
136.133269
 30
0.0
 11
186.485001
 21
137.78875
 31
0.0
  0
LINE
  5
3C9
330
BF
100
AcDbEntity
  8
ZUWAKU
  6
Continuous
 62
     7
370
    13
100
AcDbLine
 10
189.998367
 20
134.133962
 30
0.0
 11
188.457329
 21
135.675
 31
0.0
  0
LINE
  5
3CA
330
BF
100
AcDbEntity
  8
ZUWAKU
  6
Continuous
 62
     7
370
    13
100
AcDbLine
 10
188.110596
 20
136.021734
 30
0.0
 11
186.343579
 21
137.78875
 31
0.0
  0
LINE
  5
3CB
330
BF
100
AcDbEntity
  8
ZUWAKU
  6
Continuous
 62
     7
370
    13
100
AcDbLine
 10
189.998367
 20
133.992541
 30
0.0
 11
186.202158
 21
137.78875
 31
0.0
  0
LINE
  5
3CC
330
BF
100
AcDbEntity
  8
ZUWAKU
  6
Continuous
 62
     7
370
    13
100
AcDbLine
 10
189.991087
 20
133.8584
 30
0.0
 11
186.060737
 21
137.78875
 31
0.0
  0
LINE
  5
3CD
330
BF
100
AcDbEntity
  8
ZUWAKU
  6
Continuous
 62
     7
370
    13
100
AcDbLine
 10
189.967623
 20
133.740442
 30
0.0
 11
185.919315
 21
137.78875
 31
0.0
  0
LINE
  5
3CE
330
BF
100
AcDbEntity
  8
ZUWAKU
  6
Continuous
 62
     7
370
    13
100
AcDbLine
 10
189.915405
 20
133.651239
 30
0.0
 11
185.777894
 21
137.78875
 31
0.0
  0
LINE
  5
3CF
330
BF
100
AcDbEntity
  8
ZUWAKU
  6
Continuous
 62
     7
370
    13
100
AcDbLine
 10
189.854156
 20
133.571067
 30
0.0
 11
185.636473
 21
137.78875
 31
0.0
  0
LINE
  5
3D0
330
BF
100
AcDbEntity
  8
ZUWAKU
  6
Continuous
 62
     7
370
    13
100
AcDbLine
 10
189.76938
 20
133.514422
 30
0.0
 11
185.495051
 21
137.78875
 31
0.0
  0
LINE
  5
3D1
330
BF
100
AcDbEntity
  8
ZUWAKU
  6
Continuous
 62
     7
370
    13
100
AcDbLine
 10
189.669316
 20
133.473064
 30
0.0
 11
185.35363
 21
137.78875
 31
0.0
  0
LINE
  5
3D2
330
BF
100
AcDbEntity
  8
ZUWAKU
  6
Continuous
 62
     7
370
    13
100
AcDbLine
 10
189.550959
 20
133.45
 30
0.0
 11
185.212209
 21
137.78875
 31
0.0
  0
LINE
  5
3D3
330
BF
100
AcDbEntity
  8
ZUWAKU
  6
Continuous
 62
     7
370
    13
100
AcDbLine
 10
189.409537
 20
133.45
 30
0.0
 11
185.076193
 21
137.783345
 31
0.0
  0
LINE
  5
3D4
330
BF
100
AcDbEntity
  8
ZUWAKU
  6
Continuous
 62
     7
370
    13
100
AcDbLine
 10
189.268116
 20
133.45
 30
0.0
 11
184.958235
 21
137.759881
 31
0.0
  0
LINE
  5
3D5
330
BF
100
AcDbEntity
  8
ZUWAKU
  6
Continuous
 62
     7
370
    13
100
AcDbLine
 10
189.126695
 20
133.45
 30
0.0
 11
184.866381
 21
137.710314
 31
0.0
  0
LINE
  5
3D6
330
BF
100
AcDbEntity
  8
ZUWAKU
  6
Continuous
 62
     7
370
    13
100
AcDbLine
 10
189.973684
 20
132.461589
 30
0.0
 11
189.677456
 21
132.757817
 31
0.0
  0
LINE
  5
3D7
330
BF
100
AcDbEntity
  8
ZUWAKU
  6
Continuous
 62
     7
370
    13
100
AcDbLine
 10
188.985273
 20
133.45
 30
0.0
 11
184.783961
 21
137.651313
 31
0.0
  0
LINE
  5
3D8
330
BF
100
AcDbEntity
  8
ZUWAKU
  6
Continuous
 62
     7
370
    13
100
AcDbLine
 10
189.998367
 20
132.295485
 30
0.0
 11
189.511352
 21
132.7825
 31
0.0
  0
LINE
  5
3D9
330
BF
100
AcDbEntity
  8
ZUWAKU
  6
Continuous
 62
     7
370
    13
100
AcDbLine
 10
188.843852
 20
133.45
 30
0.0
 11
184.727315
 21
137.566537
 31
0.0
  0
LINE
  5
3DA
330
BF
100
AcDbEntity
  8
ZUWAKU
  6
Continuous
 62
     7
370
    13
100
AcDbLine
 10
189.998367
 20
132.154063
 30
0.0
 11
189.36993
 21
132.7825
 31
0.0
  0
LINE
  5
3DB
330
BF
100
AcDbEntity
  8
ZUWAKU
  6
Continuous
 62
     7
370
    13
100
AcDbLine
 10
188.70243
 20
133.45
 30
0.0
 11
184.683306
 21
137.469125
 31
0.0
  0
LINE
  5
3DC
330
BF
100
AcDbEntity
  8
ZUWAKU
  6
Continuous
 62
     7
370
    13
100
AcDbLine
 10
189.998367
 20
132.012642
 30
0.0
 11
189.228509
 21
132.7825
 31
0.0
  0
LINE
  5
3DD
330
BF
100
AcDbEntity
  8
ZUWAKU
  6
Continuous
 62
     7
370
    13
100
AcDbLine
 10
188.561009
 20
133.45
 30
0.0
 11
184.659842
 21
137.351167
 31
0.0
  0
LINE
  5
3DE
330
BF
100
AcDbEntity
  8
ZUWAKU
  6
Continuous
 62
     7
370
    13
100
AcDbLine
 10
189.998367
 20
131.871221
 30
0.0
 11
189.087088
 21
132.7825
 31
0.0
  0
LINE
  5
3DF
330
BF
100
AcDbEntity
  8
ZUWAKU
  6
Continuous
 62
     7
370
    13
100
AcDbLine
 10
188.424085
 20
133.445503
 30
0.0
 11
184.658367
 21
137.211221
 31
0.0
  0
LINE
  5
3E0
330
BF
100
AcDbEntity
  8
ZUWAKU
  6
Continuous
 62
     7
370
    13
100
AcDbLine
 10
189.998367
 20
131.729799
 30
0.0
 11
188.945666
 21
132.7825
 31
0.0
  0
LINE
  5
3E1
330
BF
100
AcDbEntity
  8
ZUWAKU
  6
Continuous
 62
     7
370
    13
100
AcDbLine
 10
188.312549
 20
133.415617
 30
0.0
 11
184.658367
 21
137.069799
 31
0.0
  0
LINE
  5
3E2
330
BF
100
AcDbEntity
  8
ZUWAKU
  6
Continuous
 62
     7
370
    13
100
AcDbLine
 10
189.998367
 20
131.588378
 30
0.0
 11
188.804245
 21
132.7825
 31
0.0
  0
LINE
  5
3E3
330
BF
100
AcDbEntity
  8
ZUWAKU
  6
Continuous
 62
     7
370
    13
100
AcDbLine
 10
188.227726
 20
133.35902
 30
0.0
 11
184.658367
 21
136.928378
 31
0.0
  0
LINE
  5
3E4
330
BF
100
AcDbEntity
  8
ZUWAKU
  6
Continuous
 62
     7
370
    13
100
AcDbLine
 10
189.998367
 20
131.446957
 30
0.0
 11
188.662824
 21
132.7825
 31
0.0
  0
LINE
  5
3E5
330
BF
100
AcDbEntity
  8
ZUWAKU
  6
Continuous
 62
     7
370
    13
100
AcDbLine
 10
188.157015
 20
133.288309
 30
0.0
 11
184.658367
 21
136.786957
 31
0.0
  0
LINE
  5
3E6
330
BF
100
AcDbEntity
  8
ZUWAKU
  6
Continuous
 62
     7
370
    13
100
AcDbLine
 10
189.998367
 20
131.305535
 30
0.0
 11
188.521402
 21
132.7825
 31
0.0
  0
LINE
  5
3E7
330
BF
100
AcDbEntity
  8
ZUWAKU
  6
Continuous
 62
     7
370
    13
100
AcDbLine
 10
188.124136
 20
133.179766
 30
0.0
 11
184.658367
 21
136.645535
 31
0.0
  0
LINE
  5
3E8
330
BF
100
AcDbEntity
  8
ZUWAKU
  6
Continuous
 62
     7
370
    13
100
AcDbLine
 10
189.998367
 20
131.164114
 30
0.0
 11
188.357695
 21
132.804786
 31
0.0
  0
LINE
  5
3E9
330
BF
100
AcDbEntity
  8
ZUWAKU
  6
Continuous
 62
     7
370
    13
100
AcDbLine
 10
188.129403
 20
133.033078
 30
0.0
 11
184.658367
 21
136.504114
 31
0.0
  0
LINE
  5
3EA
330
BF
100
AcDbEntity
  8
ZUWAKU
  6
Continuous
 62
     7
370
    13
100
AcDbLine
 10
189.998367
 20
131.022693
 30
0.0
 11
184.658367
 21
136.362693
 31
0.0
  0
LINE
  5
3EB
330
BF
100
AcDbEntity
  8
ZUWAKU
  6
Continuous
 62
     7
370
    13
100
AcDbLine
 10
189.998367
 20
130.881271
 30
0.0
 11
184.658367
 21
136.221271
 31
0.0
  0
LINE
  5
3EC
330
BF
100
AcDbEntity
  8
ZUWAKU
  6
Continuous
 62
     7
370
    13
100
AcDbLine
 10
189.998367
 20
130.73985
 30
0.0
 11
184.658367
 21
136.07985
 31
0.0
  0
LINE
  5
3ED
330
BF
100
AcDbEntity
  8
ZUWAKU
  6
Continuous
 62
     7
370
    13
100
AcDbLine
 10
189.998367
 20
130.598429
 30
0.0
 11
184.658367
 21
135.938429
 31
0.0
  0
LINE
  5
3EE
330
BF
100
AcDbEntity
  8
ZUWAKU
  6
Continuous
 62
     7
370
    13
100
AcDbLine
 10
189.998367
 20
130.457007
 30
0.0
 11
184.658367
 21
135.797007
 31
0.0
  0
LINE
  5
3EF
330
BF
100
AcDbEntity
  8
ZUWAKU
  6
Continuous
 62
     7
370
    13
100
AcDbLine
 10
189.976688
 20
130.337264
 30
0.0
 11
184.658367
 21
135.655586
 31
0.0
  0
LINE
  5
3F0
330
BF
100
AcDbEntity
  8
ZUWAKU
  6
Continuous
 62
     7
370
    13
100
AcDbLine
 10
189.937289
 20
130.235242
 30
0.0
 11
184.658367
 21
135.514165
 31
0.0
  0
LINE
  5
3F1
330
BF
100
AcDbEntity
  8
ZUWAKU
  6
Continuous
 62
     7
370
    13
100
AcDbLine
 10
189.880644
 20
130.150466
 30
0.0
 11
184.658367
 21
135.372743
 31
0.0
  0
LINE
  5
3F2
330
BF
100
AcDbEntity
  8
ZUWAKU
  6
Continuous
 62
     7
370
    13
100
AcDbLine
 10
189.802132
 20
130.087556
 30
0.0
 11
184.658367
 21
135.231322
 31
0.0
  0
LINE
  5
3F3
330
BF
100
AcDbEntity
  8
ZUWAKU
  6
Continuous
 62
     7
370
    13
100
AcDbLine
 10
189.714889
 20
130.033379
 30
0.0
 11
184.658367
 21
135.0899
 31
0.0
  0
LINE
  5
3F4
330
BF
100
AcDbEntity
  8
ZUWAKU
  6
Continuous
 62
     7
370
    13
100
AcDbLine
 10
189.596931
 20
130.009915
 30
0.0
 11
184.658367
 21
134.948479
 31
0.0
  0
LINE
  5
3F5
330
BF
100
AcDbEntity
  8
ZUWAKU
  6
Continuous
 62
     7
370
    13
100
AcDbLine
 10
189.464175
 20
130.00125
 30
0.0
 11
184.658367
 21
134.807058
 31
0.0
  0
LINE
  5
3F6
330
BF
100
AcDbEntity
  8
ZUWAKU
  6
Continuous
 62
     7
370
    13
100
AcDbLine
 10
189.322753
 20
130.00125
 30
0.0
 11
184.658367
 21
134.665636
 31
0.0
  0
LINE
  5
3F7
330
BF
100
AcDbEntity
  8
ZUWAKU
  6
Continuous
 62
     7
370
    13
100
AcDbLine
 10
189.181332
 20
130.00125
 30
0.0
 11
184.658367
 21
134.524215
 31
0.0
  0
LINE
  5
3F8
330
BF
100
AcDbEntity
  8
ZUWAKU
  6
Continuous
 62
     7
370
    13
100
AcDbLine
 10
189.039911
 20
130.00125
 30
0.0
 11
184.658367
 21
134.382794
 31
0.0
  0
LINE
  5
3F9
330
BF
100
AcDbEntity
  8
ZUWAKU
  6
Continuous
 62
     7
370
    13
100
AcDbLine
 10
188.898489
 20
130.00125
 30
0.0
 11
184.658367
 21
134.241372
 31
0.0
  0
LINE
  5
3FA
330
BF
100
AcDbEntity
  8
ZUWAKU
  6
Continuous
 62
     7
370
    13
100
AcDbLine
 10
188.757068
 20
130.00125
 30
0.0
 11
184.658367
 21
134.099951
 31
0.0
  0
LINE
  5
3FB
330
BF
100
AcDbEntity
  8
ZUWAKU
  6
Continuous
 62
     7
370
    13
100
AcDbLine
 10
188.615647
 20
130.00125
 30
0.0
 11
184.658367
 21
133.95853
 31
0.0
  0
LINE
  5
3FC
330
BF
100
AcDbEntity
  8
ZUWAKU
  6
Continuous
 62
     7
370
    13
100
AcDbLine
 10
188.474225
 20
130.00125
 30
0.0
 11
184.658367
 21
133.817108
 31
0.0
  0
LINE
  5
3FD
330
BF
100
AcDbEntity
  8
ZUWAKU
  6
Continuous
 62
     7
370
    13
100
AcDbLine
 10
188.332804
 20
130.00125
 30
0.0
 11
184.658367
 21
133.675687
 31
0.0
  0
LINE
  5
3FE
330
BF
100
AcDbEntity
  8
ZUWAKU
  6
Continuous
 62
     7
370
    13
100
AcDbLine
 10
188.191383
 20
130.00125
 30
0.0
 11
184.658367
 21
133.534266
 31
0.0
  0
LINE
  5
3FF
330
BF
100
AcDbEntity
  8
ZUWAKU
  6
Continuous
 62
     7
370
    13
100
AcDbLine
 10
188.049961
 20
130.00125
 30
0.0
 11
184.658367
 21
133.392844
 31
0.0
  0
LINE
  5
400
330
BF
100
AcDbEntity
  8
ZUWAKU
  6
Continuous
 62
     7
370
    13
100
AcDbLine
 10
187.90854
 20
130.00125
 30
0.0
 11
184.658367
 21
133.251423
 31
0.0
  0
LINE
  5
401
330
BF
100
AcDbEntity
  8
ZUWAKU
  6
Continuous
 62
     7
370
    13
100
AcDbLine
 10
187.767118
 20
130.00125
 30
0.0
 11
184.658367
 21
133.110001
 31
0.0
  0
LINE
  5
402
330
BF
100
AcDbEntity
  8
ZUWAKU
  6
Continuous
 62
     7
370
    13
100
AcDbLine
 10
187.625697
 20
130.00125
 30
0.0
 11
184.658367
 21
132.96858
 31
0.0
  0
LINE
  5
403
330
BF
100
AcDbEntity
  8
ZUWAKU
  6
Continuous
 62
     7
370
    13
100
AcDbLine
 10
187.484276
 20
130.00125
 30
0.0
 11
184.658367
 21
132.827159
 31
0.0
  0
LINE
  5
404
330
BF
100
AcDbEntity
  8
ZUWAKU
  6
Continuous
 62
     7
370
    13
100
AcDbLine
 10
187.342854
 20
130.00125
 30
0.0
 11
184.658367
 21
132.685737
 31
0.0
  0
LINE
  5
405
330
BF
100
AcDbEntity
  8
ZUWAKU
  6
Continuous
 62
     7
370
    13
100
AcDbLine
 10
187.201433
 20
130.00125
 30
0.0
 11
184.658367
 21
132.544316
 31
0.0
  0
LINE
  5
406
330
BF
100
AcDbEntity
  8
ZUWAKU
  6
Continuous
 62
     7
370
    13
100
AcDbLine
 10
187.060012
 20
130.00125
 30
0.0
 11
184.658367
 21
132.402895
 31
0.0
  0
LINE
  5
407
330
BF
100
AcDbEntity
  8
ZUWAKU
  6
Continuous
 62
     7
370
    13
100
AcDbLine
 10
186.91859
 20
130.00125
 30
0.0
 11
184.658367
 21
132.261473
 31
0.0
  0
LINE
  5
408
330
BF
100
AcDbEntity
  8
ZUWAKU
  6
Continuous
 62
     7
370
    13
100
AcDbLine
 10
186.777169
 20
130.00125
 30
0.0
 11
184.658367
 21
132.120052
 31
0.0
  0
LINE
  5
409
330
BF
100
AcDbEntity
  8
ZUWAKU
  6
Continuous
 62
     7
370
    13
100
AcDbLine
 10
186.635748
 20
130.00125
 30
0.0
 11
184.658367
 21
131.978631
 31
0.0
  0
LINE
  5
40A
330
BF
100
AcDbEntity
  8
ZUWAKU
  6
Continuous
 62
     7
370
    13
100
AcDbLine
 10
186.494326
 20
130.00125
 30
0.0
 11
184.658367
 21
131.837209
 31
0.0
  0
LINE
  5
40B
330
BF
100
AcDbEntity
  8
ZUWAKU
  6
Continuous
 62
     7
370
    13
100
AcDbLine
 10
186.352905
 20
130.00125
 30
0.0
 11
184.658367
 21
131.695788
 31
0.0
  0
LINE
  5
40C
330
BF
100
AcDbEntity
  8
ZUWAKU
  6
Continuous
 62
     7
370
    13
100
AcDbLine
 10
186.211484
 20
130.00125
 30
0.0
 11
184.658367
 21
131.554367
 31
0.0
  0
LINE
  5
40D
330
BF
100
AcDbEntity
  8
ZUWAKU
  6
Continuous
 62
     7
370
    13
100
AcDbLine
 10
186.070062
 20
130.00125
 30
0.0
 11
184.658367
 21
131.412945
 31
0.0
  0
LINE
  5
40E
330
BF
100
AcDbEntity
  8
ZUWAKU
  6
Continuous
 62
     7
370
    13
100
AcDbLine
 10
185.928641
 20
130.00125
 30
0.0
 11
184.658367
 21
131.271524
 31
0.0
  0
LINE
  5
40F
330
BF
100
AcDbEntity
  8
ZUWAKU
  6
Continuous
 62
     7
370
    13
100
AcDbLine
 10
185.787219
 20
130.00125
 30
0.0
 11
184.658367
 21
131.130102
 31
0.0
  0
LINE
  5
410
330
BF
100
AcDbEntity
  8
ZUWAKU
  6
Continuous
 62
     7
370
    13
100
AcDbLine
 10
185.645798
 20
130.00125
 30
0.0
 11
184.658367
 21
130.988681
 31
0.0
  0
LINE
  5
411
330
BF
100
AcDbEntity
  8
ZUWAKU
  6
Continuous
 62
     7
370
    13
100
AcDbLine
 10
185.504377
 20
130.00125
 30
0.0
 11
184.658367
 21
130.84726
 31
0.0
  0
LINE
  5
412
330
BF
100
AcDbEntity
  8
ZUWAKU
  6
Continuous
 62
     7
370
    13
100
AcDbLine
 10
185.362955
 20
130.00125
 30
0.0
 11
184.658367
 21
130.705838
 31
0.0
  0
LINE
  5
413
330
BF
100
AcDbEntity
  8
ZUWAKU
  6
Continuous
 62
     7
370
    13
100
AcDbLine
 10
185.221534
 20
130.00125
 30
0.0
 11
184.658367
 21
130.564417
 31
0.0
  0
LINE
  5
414
330
BF
100
AcDbEntity
  8
ZUWAKU
  6
Continuous
 62
     7
370
    13
100
AcDbLine
 10
185.074339
 20
130.007024
 30
0.0
 11
184.664141
 21
130.417222
 31
0.0
  0
LINE
  5
415
330
BF
100
AcDbEntity
  8
ZUWAKU
  6
Continuous
 62
     7
370
    13
100
AcDbLine
 10
184.847921
 20
130.09202
 30
0.0
 11
184.749137
 21
130.190804
 31
0.0
  0
ENDBLK
  5
C1
330
BF
100
AcDbEntity
  8
0
100
AcDbBlockEnd
  0
BLOCK
  5
C3
330
C2
100
AcDbEntity
  8
0
100
AcDbBlockBegin
  2
DC_GROUP_HFB-3M_5
 70
     0
 10
0.0
 20
0.0
 30
0.0
  3
DC_GROUP_HFB-3M_5
  1

  0
LINE
  5
416
330
C2
100
AcDbEntity
  8
Layer0008
  6
CENTER
 62
    56
370
    13
100
AcDbLine
 10
-110.8827723454597
 20
9.090001270987859
 30
0.0
 11
-40.88277234545968
 21
9.090001270987859
 31
0.0
  0
LINE
  5
417
330
C2
100
AcDbEntity
  8
Layer0008
  6
CENTER
 62
    56
370
    13
100
AcDbLine
 10
-75.8827723454597
 20
44.09000127098786
 30
0.0
 11
-75.8827723454597
 21
-25.90999872901214
 31
0.0
  0
ENDBLK
  5
C4
330
C2
100
AcDbEntity
  8
0
100
AcDbBlockEnd
  0
ENDSEC
  0
SECTION
  2
ENTITIES
  0
LINE
  5
418
330
1F
100
AcDbEntity
  8
ZUWAKU
  6
Continuous
 62
     7
370
    13
100
AcDbLine
 10
-190.001633
 20
128.50125
 30
0.0
 11
-190.001633
 21
-131.49875
 31
0.0
  0
LINE
  5
419
330
1F
100
AcDbEntity
  8
ZUWAKU
  6
Continuous
 62
     7
370
    13
100
AcDbLine
 10
189.998367
 20
-131.49875
 30
0.0
 11
189.998367
 21
128.50125
 31
0.0
  0
LINE
  5
41A
330
1F
100
AcDbEntity
  8
ZUWAKU
  6
Continuous
 62
     7
370
    13
100
AcDbLine
 10
189.998367
 20
128.50125
 30
0.0
 11
-190.001633
 21
128.50125
 31
0.0
  0
LINE
  5
41B
330
1F
100
AcDbEntity
  8
ZUWAKU
  6
Continuous
 62
     7
370
    13
100
AcDbLine
 10
189.998367
 20
-131.49875
 30
0.0
 11
-190.001633
 21
-131.49875
 31
0.0
  0
LINE
  5
41C
330
1F
100
AcDbEntity
  8
ZUWAKU
  6
Continuous
 62
     7
370
    13
100
AcDbLine
 10
171.975867
 20
130.44625
 30
0.0
 11
171.975867
 21
137.34375
 31
0.0
  0
LINE
  5
41D
330
1F
100
AcDbEntity
  8
ZUWAKU
  6
Continuous
 62
     7
370
    13
100
AcDbLine
 10
166.635867
 20
130.44625
 30
0.0
 11
166.635867
 21
137.34375
 31
0.0
  0
LINE
  5
41E
330
1F
100
AcDbEntity
  8
ZUWAKU
  6
Continuous
 62
     7
370
    13
100
AcDbLine
 10
168.082117
 20
130.44625
 30
0.0
 11
168.082117
 21
131.33625
 31
0.0
  0
LINE
  5
41F
330
1F
100
AcDbEntity
  8
ZUWAKU
  6
Continuous
 62
     7
370
    13
100
AcDbLine
 10
168.749617
 20
130.44625
 30
0.0
 11
168.749617
 21
131.33625
 31
0.0
  0
ARC
  5
420
330
1F
100
AcDbEntity
  8
ZUWAKU
  6
Continuous
 62
     7
370
    13
100
AcDbCircle
 10
168.415867
 20
136.45375
 30
0.0
 40
0.33375
100
AcDbArc
 50
180.0
 51
0.0
  0
ARC
  5
421
330
1F
100
AcDbEntity
  8
ZUWAKU
  6
Continuous
 62
     7
370
    13
100
AcDbCircle
 10
168.415867
 20
131.33625
 30
0.0
 40
0.33375
100
AcDbArc
 50
0.0
 51
180.0
  0
LINE
  5
422
330
1F
100
AcDbEntity
  8
ZUWAKU
  6
Continuous
 62
     7
370
    13
100
AcDbLine
 10
168.082117
 20
137.34375
 30
0.0
 11
168.082117
 21
136.45375
 31
0.0
  0
LINE
  5
423
330
1F
100
AcDbEntity
  8
ZUWAKU
  6
Continuous
 62
     7
370
    13
100
AcDbLine
 10
168.749617
 20
136.45375
 30
0.0
 11
168.749617
 21
137.34375
 31
0.0
  0
LINE
  5
424
330
1F
100
AcDbEntity
  8
ZUWAKU
  6
Continuous
 62
     7
370
    13
100
AcDbLine
 10
167.080867
 20
137.78875
 30
0.0
 11
167.637117
 21
137.78875
 31
0.0
  0
LINE
  5
425
330
1F
100
AcDbEntity
  8
ZUWAKU
  6
Continuous
 62
     7
370
    13
100
AcDbLine
 10
167.080867
 20
130.00125
 30
0.0
 11
167.637117
 21
130.00125
 31
0.0
  0
ARC
  5
426
330
1F
100
AcDbEntity
  8
ZUWAKU
  6
Continuous
 62
     7
370
    13
100
AcDbCircle
 10
171.530867
 20
137.34375
 30
0.0
 40
0.445
100
AcDbArc
 50
0.0
 51
90.0
  0
ARC
  5
427
330
1F
100
AcDbEntity
  8
ZUWAKU
  6
Continuous
 62
     7
370
    13
100
AcDbCircle
 10
171.530867
 20
130.44625
 30
0.0
 40
0.445
100
AcDbArc
 50
270.0
 51
0.0
  0
ARC
  5
428
330
1F
100
AcDbEntity
  8
ZUWAKU
  6
Continuous
 62
     7
370
    13
100
AcDbCircle
 10
167.080867
 20
130.44625
 30
0.0
 40
0.445
100
AcDbArc
 50
180.0
 51
270.0
  0
ARC
  5
429
330
1F
100
AcDbEntity
  8
ZUWAKU
  6
Continuous
 62
     7
370
    13
100
AcDbCircle
 10
167.080867
 20
137.34375
 30
0.0
 40
0.445
100
AcDbArc
 50
90.0
 51
180.0
  0
LINE
  5
42A
330
1F
100
AcDbEntity
  8
ZUWAKU
  6
Continuous
 62
     7
370
    13
100
AcDbLine
 10
169.194617
 20
137.78875
 30
0.0
 11
171.530867
 21
137.78875
 31
0.0
  0
LINE
  5
42B
330
1F
100
AcDbEntity
  8
ZUWAKU
  6
Continuous
 62
     7
370
    13
100
AcDbLine
 10
169.194617
 20
130.00125
 30
0.0
 11
171.530867
 21
130.00125
 31
0.0
  0
LINE
  5
42C
330
1F
100
AcDbEntity
  8
ZUWAKU
  6
Continuous
 62
     7
370
    13
100
AcDbLine
 10
177.983367
 20
130.44625
 30
0.0
 11
177.983367
 21
137.34375
 31
0.0
  0
LINE
  5
42D
330
1F
100
AcDbEntity
  8
ZUWAKU
  6
Continuous
 62
     7
370
    13
100
AcDbLine
 10
172.643367
 20
130.44625
 30
0.0
 11
172.643367
 21
137.34375
 31
0.0
  0
LINE
  5
42E
330
1F
100
AcDbEntity
  8
ZUWAKU
  6
Continuous
 62
     7
370
    13
100
AcDbLine
 10
173.088367
 20
137.78875
 30
0.0
 11
177.538367
 21
137.78875
 31
0.0
  0
LINE
  5
42F
330
1F
100
AcDbEntity
  8
ZUWAKU
  6
Continuous
 62
     7
370
    13
100
AcDbLine
 10
173.088367
 20
130.00125
 30
0.0
 11
177.538367
 21
130.00125
 31
0.0
  0
ARC
  5
430
330
1F
100
AcDbEntity
  8
ZUWAKU
  6
Continuous
 62
     7
370
    13
100
AcDbCircle
 10
177.538367
 20
137.34375
 30
0.0
 40
0.445
100
AcDbArc
 50
0.0
 51
90.0
  0
ARC
  5
431
330
1F
100
AcDbEntity
  8
ZUWAKU
  6
Continuous
 62
     7
370
    13
100
AcDbCircle
 10
177.538367
 20
130.44625
 30
0.0
 40
0.445
100
AcDbArc
 50
270.0
 51
0.0
  0
ARC
  5
432
330
1F
100
AcDbEntity
  8
ZUWAKU
  6
Continuous
 62
     7
370
    13
100
AcDbCircle
 10
173.088367
 20
130.44625
 30
0.0
 40
0.445
100
AcDbArc
 50
180.0
 51
270.0
  0
ARC
  5
433
330
1F
100
AcDbEntity
  8
ZUWAKU
  6
Continuous
 62
     7
370
    13
100
AcDbCircle
 10
173.088367
 20
137.34375
 30
0.0
 40
0.445
100
AcDbArc
 50
90.0
 51
180.0
  0
LINE
  5
434
330
1F
100
AcDbEntity
  8
ZUWAKU
  6
Continuous
 62
     7
370
    13
100
AcDbLine
 10
183.990867
 20
133.11625
 30
0.0
 11
183.990867
 21
137.34375
 31
0.0
  0
LINE
  5
435
330
1F
100
AcDbEntity
  8
ZUWAKU
  6
Continuous
 62
     7
370
    13
100
AcDbLine
 10
178.650867
 20
130.44625
 30
0.0
 11
178.650867
 21
137.34375
 31
0.0
  0
LINE
  5
436
330
1F
100
AcDbEntity
  8
ZUWAKU
  6
Continuous
 62
     7
370
    13
100
AcDbLine
 10
179.095867
 20
137.78875
 30
0.0
 11
183.545867
 21
137.78875
 31
0.0
  0
LINE
  5
437
330
1F
100
AcDbEntity
  8
ZUWAKU
  6
Continuous
 62
     7
370
    13
100
AcDbLine
 10
179.095867
 20
130.00125
 30
0.0
 11
180.430867
 21
130.00125
 31
0.0
  0
ARC
  5
438
330
1F
100
AcDbEntity
  8
ZUWAKU
  6
Continuous
 62
     7
370
    13
100
AcDbCircle
 10
183.545867
 20
137.34375
 30
0.0
 40
0.445
100
AcDbArc
 50
0.0
 51
90.0
  0
ARC
  5
439
330
1F
100
AcDbEntity
  8
ZUWAKU
  6
Continuous
 62
     7
370
    13
100
AcDbCircle
 10
179.095867
 20
130.44625
 30
0.0
 40
0.445
100
AcDbArc
 50
180.0
 51
270.0
  0
ARC
  5
43A
330
1F
100
AcDbEntity
  8
ZUWAKU
  6
Continuous
 62
     7
370
    13
100
AcDbCircle
 10
179.095867
 20
137.34375
 30
0.0
 40
0.445
100
AcDbArc
 50
90.0
 51
180.0
  0
LINE
  5
43B
330
1F
100
AcDbEntity
  8
ZUWAKU
  6
Continuous
 62
     7
370
    13
100
AcDbLine
 10
189.998367
 20
130.44625
 30
0.0
 11
189.998367
 21
132.3375
 31
0.0
  0
LINE
  5
43C
330
1F
100
AcDbEntity
  8
ZUWAKU
  6
Continuous
 62
     7
370
    13
100
AcDbLine
 10
184.658367
 20
130.44625
 30
0.0
 11
184.658367
 21
137.34375
 31
0.0
  0
LINE
  5
43D
330
1F
100
AcDbEntity
  8
ZUWAKU
  6
Continuous
 62
     7
370
    13
100
AcDbLine
 10
185.103367
 20
137.78875
 30
0.0
 11
189.553367
 21
137.78875
 31
0.0
  0
LINE
  5
43E
330
1F
100
AcDbEntity
  8
ZUWAKU
  6
Continuous
 62
     7
370
    13
100
AcDbLine
 10
185.103367
 20
130.00125
 30
0.0
 11
189.553367
 21
130.00125
 31
0.0
  0
ARC
  5
43F
330
1F
100
AcDbEntity
  8
ZUWAKU
  6
Continuous
 62
     7
370
    13
100
AcDbCircle
 10
189.553367
 20
137.34375
 30
0.0
 40
0.445
100
AcDbArc
 50
0.0
 51
90.0
  0
ARC
  5
440
330
1F
100
AcDbEntity
  8
ZUWAKU
  6
Continuous
 62
     7
370
    13
100
AcDbCircle
 10
189.553367
 20
130.44625
 30
0.0
 40
0.445
100
AcDbArc
 50
270.0
 51
0.0
  0
ARC
  5
441
330
1F
100
AcDbEntity
  8
ZUWAKU
  6
Continuous
 62
     7
370
    13
100
AcDbCircle
 10
185.103367
 20
130.44625
 30
0.0
 40
0.445
100
AcDbArc
 50
180.0
 51
270.0
  0
ARC
  5
442
330
1F
100
AcDbEntity
  8
ZUWAKU
  6
Continuous
 62
     7
370
    13
100
AcDbCircle
 10
185.103367
 20
137.34375
 30
0.0
 40
0.445
100
AcDbArc
 50
90.0
 51
180.0
  0
LINE
  5
443
330
1F
100
AcDbEntity
  8
ZUWAKU
  6
Continuous
 62
     7
370
    13
100
AcDbLine
 10
173.644617
 20
134.785
 30
0.0
 11
173.644617
 21
136.3425
 31
0.0
  0
LINE
  5
444
330
1F
100
AcDbEntity
  8
ZUWAKU
  6
Continuous
 62
     7
370
    13
100
AcDbLine
 10
174.312117
 20
134.785
 30
0.0
 11
174.312117
 21
136.3425
 31
0.0
  0
ARC
  5
445
330
1F
100
AcDbEntity
  8
ZUWAKU
  6
Continuous
 62
     7
370
    13
100
AcDbCircle
 10
173.978367
 20
136.3425
 30
0.0
 40
0.33375
100
AcDbArc
 50
0.0
 51
180.0
  0
ARC
  5
446
330
1F
100
AcDbEntity
  8
ZUWAKU
  6
Continuous
 62
     7
370
    13
100
AcDbCircle
 10
173.978367
 20
134.785
 30
0.0
 40
0.33375
100
AcDbArc
 50
180.0
 51
0.0
  0
LINE
  5
447
330
1F
100
AcDbEntity
  8
ZUWAKU
  6
Continuous
 62
     7
370
    13
100
AcDbLine
 10
180.875867
 20
132.67125
 30
0.0
 11
180.875867
 21
130.44625
 31
0.0
  0
LINE
  5
448
330
1F
100
AcDbEntity
  8
ZUWAKU
  6
Continuous
 62
     7
370
    13
100
AcDbLine
 10
180.875867
 20
132.67125
 30
0.0
 11
183.545867
 21
132.67125
 31
0.0
  0
LINE
  5
449
330
1F
100
AcDbEntity
  8
ZUWAKU
  6
Continuous
 62
     7
370
    13
100
AcDbLine
 10
182.989617
 20
134.67375
 30
0.0
 11
182.989617
 21
135.78625
 31
0.0
  0
LINE
  5
44A
330
1F
100
AcDbEntity
  8
ZUWAKU
  6
Continuous
 62
     7
370
    13
100
AcDbLine
 10
182.322117
 20
134.67375
 30
0.0
 11
182.322117
 21
135.78625
 31
0.0
  0
ARC
  5
44B
330
1F
100
AcDbEntity
  8
ZUWAKU
  6
Continuous
 62
     7
370
    13
100
AcDbCircle
 10
182.655867
 20
135.78625
 30
0.0
 40
0.33375
100
AcDbArc
 50
0.0
 51
180.0
  0
ARC
  5
44C
330
1F
100
AcDbEntity
  8
ZUWAKU
  6
Continuous
 62
     7
370
    13
100
AcDbCircle
 10
182.655867
 20
134.67375
 30
0.0
 40
0.33375
100
AcDbArc
 50
180.0
 51
0.0
  0
ARC
  5
44D
330
1F
100
AcDbEntity
  8
ZUWAKU
  6
Continuous
 62
     7
370
    13
100
AcDbCircle
 10
183.545867
 20
133.11625
 30
0.0
 40
0.445
100
AcDbArc
 50
270.0
 51
0.0
  0
ARC
  5
44E
330
1F
100
AcDbEntity
  8
ZUWAKU
  6
Continuous
 62
     7
370
    13
100
AcDbCircle
 10
180.430867
 20
130.44625
 30
0.0
 40
0.445
100
AcDbArc
 50
270.0
 51
0.0
  0
LINE
  5
44F
330
1F
100
AcDbEntity
  8
ZUWAKU
  6
Continuous
 62
     7
370
    13
100
AcDbLine
 10
188.440867
 20
132.7825
 30
0.0
 11
189.553367
 21
132.7825
 31
0.0
  0
LINE
  5
450
330
1F
100
AcDbEntity
  8
ZUWAKU
  6
Continuous
 62
     7
370
    13
100
AcDbLine
 10
188.440867
 20
133.45
 30
0.0
 11
189.553367
 21
133.45
 31
0.0
  0
LINE
  5
451
330
1F
100
AcDbEntity
  8
ZUWAKU
  6
Continuous
 62
     7
370
    13
100
AcDbLine
 10
188.440867
 20
136.3425
 30
0.0
 11
189.553367
 21
136.3425
 31
0.0
  0
LINE
  5
452
330
1F
100
AcDbEntity
  8
ZUWAKU
  6
Continuous
 62
     7
370
    13
100
AcDbLine
 10
188.440867
 20
135.675
 30
0.0
 11
189.553367
 21
135.675
 31
0.0
  0
LINE
  5
453
330
1F
100
AcDbEntity
  8
ZUWAKU
  6
Continuous
 62
     7
370
    13
100
AcDbLine
 10
189.998367
 20
136.7875
 30
0.0
 11
189.998367
 21
137.34375
 31
0.0
  0
LINE
  5
454
330
1F
100
AcDbEntity
  8
ZUWAKU
  6
Continuous
 62
     7
370
    13
100
AcDbLine
 10
189.998367
 20
133.895
 30
0.0
 11
189.998367
 21
135.23
 31
0.0
  0
ARC
  5
455
330
1F
100
AcDbEntity
  8
ZUWAKU
  6
Continuous
 62
     7
370
    13
100
AcDbCircle
 10
188.440867
 20
136.00875
 30
0.0
 40
0.33375
100
AcDbArc
 50
90.0
 51
270.0
  0
ARC
  5
456
330
1F
100
AcDbEntity
  8
ZUWAKU
  6
Continuous
 62
     7
370
    13
100
AcDbCircle
 10
188.440867
 20
133.11625
 30
0.0
 40
0.33375
100
AcDbArc
 50
90.0
 51
270.0
  0
ARC
  5
457
330
1F
100
AcDbEntity
  8
ZUWAKU
  6
Continuous
 62
     7
370
    13
100
AcDbCircle
 10
167.637117
 20
137.34375
 30
0.0
 40
0.445
100
AcDbArc
 50
0.0
 51
90.0
  0
ARC
  5
458
330
1F
100
AcDbEntity
  8
ZUWAKU
  6
Continuous
 62
     7
370
    13
100
AcDbCircle
 10
169.194617
 20
137.34375
 30
0.0
 40
0.445
100
AcDbArc
 50
90.0
 51
180.0
  0
ARC
  5
459
330
1F
100
AcDbEntity
  8
ZUWAKU
  6
Continuous
 62
     7
370
    13
100
AcDbCircle
 10
169.194617
 20
130.44625
 30
0.0
 40
0.445
100
AcDbArc
 50
180.0
 51
270.0
  0
ARC
  5
45A
330
1F
100
AcDbEntity
  8
ZUWAKU
  6
Continuous
 62
     7
370
    13
100
AcDbCircle
 10
167.637117
 20
130.44625
 30
0.0
 40
0.445
100
AcDbArc
 50
270.0
 51
0.0
  0
ARC
  5
45B
330
1F
100
AcDbEntity
  8
ZUWAKU
  6
Continuous
 62
     7
370
    13
100
AcDbCircle
 10
189.553367
 20
136.7875
 30
0.0
 40
0.445
100
AcDbArc
 50
270.0
 51
0.0
  0
ARC
  5
45C
330
1F
100
AcDbEntity
  8
ZUWAKU
  6
Continuous
 62
     7
370
    13
100
AcDbCircle
 10
189.553367
 20
135.23
 30
0.0
 40
0.445
100
AcDbArc
 50
0.0
 51
90.0
  0
ARC
  5
45D
330
1F
100
AcDbEntity
  8
ZUWAKU
  6
Continuous
 62
     7
370
    13
100
AcDbCircle
 10
189.553367
 20
133.895
 30
0.0
 40
0.445
100
AcDbArc
 50
270.0
 51
0.0
  0
ARC
  5
45E
330
1F
100
AcDbEntity
  8
ZUWAKU
  6
Continuous
 62
     7
370
    13
100
AcDbCircle
 10
189.553367
 20
132.3375
 30
0.0
 40
0.445
100
AcDbArc
 50
0.0
 51
90.0
  0
LINE
  5
45F
330
1F
100
AcDbEntity
  8
ZUWAKU
  6
Continuous
 62
   150
370
    13
100
AcDbLine
 10
54.99836699999999
 20
-111.49875
 30
0.0
 11
189.998367
 21
-111.49875
 31
0.0
  0
LINE
  5
460
330
1F
100
AcDbEntity
  8
ZUWAKU
  6
Continuous
 62
   150
370
    13
100
AcDbLine
 10
54.99836699999999
 20
-124.49875
 30
0.0
 11
189.998367
 21
-124.49875
 31
0.0
  0
LINE
  5
461
330
1F
100
AcDbEntity
  8
ZUWAKU
  6
Continuous
 62
   150
370
    13
100
AcDbLine
 10
92.99661699999999
 20
-131.49875
 30
0.0
 11
92.99661699999999
 21
-124.49875
 31
0.0
  0
LINE
  5
462
330
1F
100
AcDbEntity
  8
ZUWAKU
  6
Continuous
 62
   150
370
    13
100
AcDbLine
 10
54.99836699999999
 20
-111.49875
 30
0.0
 11
54.99836699999999
 21
-131.49875
 31
0.0
  0
LINE
  5
463
330
1F
100
AcDbEntity
  8
ZUWAKU
  6
Continuous
 62
   150
370
    13
100
AcDbLine
 10
155.998367
 20
-111.49875
 30
0.0
 11
155.998367
 21
-124.49875
 31
0.0
  0
LINE
  5
464
330
1F
100
AcDbEntity
  8
ZUWAKU
  6
Continuous
 62
   150
370
    13
100
AcDbLine
 10
172.998367
 20
-111.49875
 30
0.0
 11
172.998367
 21
-124.49875
 31
0.0
  0
TEXT
  5
466
330
1F
100
AcDbEntity
  8
ZUWAKU
 62
   150
100
AcDbText
 10
56.08836699999999
 20
-126.66875
 30
0.0
 40
1.7
  1
DATE
 41
0.8406862745098036
  7
dcStyle0
 72
     5
 11
60.98836699999999
 21
-126.66875
 31
0.0
100
AcDbText
  0
TEXT
  5
467
330
1F
100
AcDbEntity
  8
ZUWAKU
 62
   150
100
AcDbText
 10
56.08836699999999
 20
-113.66875
 30
0.0
 40
1.7
  1
TITLE
 41
1.043322734499205
  7
dcStyle0
 72
     5
 11
62.33836699999999
 21
-113.66875
 31
0.0
100
AcDbText
  0
TEXT
  5
468
330
1F
100
AcDbEntity
  8
ZUWAKU
 62
   150
100
AcDbText
 10
92.748367
 20
-119.99875
 30
0.0
 40
4.0
  1
ＨＦＢ－３Ｍ
 41
1.275
  7
dcStyle0
 72
     5
 11
118.248367
 21
-119.99875
 31
0.0
100
AcDbText
  0
TEXT
  5
469
330
1F
100
AcDbEntity
  8
ZUWAKU
 62
   150
100
AcDbText
 10
64.947492
 20
-129.99875
 30
0.0
 40
4.0
  1
2020-4-9
 41
0.5656249999999998
  7
dcStyle0
 72
     5
 11
83.04749199999999
 21
-129.99875
 31
0.0
100
AcDbText
  0
TEXT
  5
46A
330
1F
100
AcDbEntity
  8
ZUWAKU
 62
   150
100
AcDbText
 10
161.498367
 20
-119.99875
 30
0.0
 40
4.0
  1
1/1
 41
0.5943396226415094
  7
dcStyle0
 72
     5
 11
167.498367
 21
-119.99875
 31
0.0
100
AcDbText
  0
TEXT
  5
46B
330
1F
100
AcDbEntity
  8
ZUWAKU
 62
   150
100
AcDbText
 10
173.498367
 20
-119.99875
 30
0.0
 40
4.0
  1
Y.TAJIKA
 41
0.6774193548387097
  7
dcStyle0
 72
     5
 11
189.498367
 21
-119.99875
 31
0.0
100
AcDbText
  0
TEXT
  5
46C
330
1F
100
AcDbEntity
  8
ZUWAKU
 62
   150
100
AcDbText
 10
173.858367
 20
-113.66875
 30
0.0
 40
1.7
  1
TRACED
 41
0.8308172826652778
  7
dcStyle0
 72
     5
 11
181.458367
 21
-113.66875
 31
0.0
100
AcDbText
  0
TEXT
  5
46D
330
1F
100
AcDbEntity
  8
ZUWAKU
 62
   150
100
AcDbText
 10
156.848367
 20
-113.66875
 30
0.0
 40
1.7
  1
SCALE
 41
0.8301707779886146
  7
dcStyle0
 72
     5
 11
163.098367
 21
-113.66875
 31
0.0
100
AcDbText
  0
TEXT
  5
46E
330
1F
100
AcDbEntity
  8
ZUWAKU
 62
     6
100
AcDbText
 10
96.997492
 20
-129.99875
 30
0.0
 40
4.0
  1
YOKOI KIKAI KOSAKUSHO CO.,LTD.
 41
0.8636783733826249
  7
dcStyle0
 72
     5
 11
185.997492
 21
-129.99875
 31
0.0
100
AcDbText
  0
INSERT
  5
46F
330
1F
100
AcDbEntity
  8
ZUWAKU
  6
Continuous
100
AcDbBlockReference
  2
DC_GROUP_HFB-3M_1
 10
0.0
 20
0.0
 30
0.0
  0
INSERT
  5
470
330
1F
100
AcDbEntity
  8
ZUWAKU
  6
Continuous
100
AcDbBlockReference
  2
DC_GROUP_HFB-3M_2
 10
0.0
 20
0.0
 30
0.0
  0
INSERT
  5
471
330
1F
100
AcDbEntity
  8
ZUWAKU
  6
Continuous
100
AcDbBlockReference
  2
DC_GROUP_HFB-3M_3
 10
0.0
 20
0.0
 30
0.0
  0
INSERT
  5
472
330
1F
100
AcDbEntity
  8
ZUWAKU
  6
Continuous
100
AcDbBlockReference
  2
DC_GROUP_HFB-3M_4
 10
0.0
 20
0.0
 30
0.0
  0
CIRCLE
  5
473
330
1F
100
AcDbEntity
  8
Layer0004
  6
Continuous
 62
     7
370
    18
100
AcDbCircle
 10
-75.8827723454597
 20
9.090001270987859
 30
0.0
 40
20.0
  0
CIRCLE
  5
474
330
1F
100
AcDbEntity
  8
Layer0004
  6
Continuous
 62
     7
370
    18
100
AcDbCircle
 10
-75.8827723454597
 20
9.090001270987859
 30
0.0
 40
21.0
  0
CIRCLE
  5
475
330
1F
100
AcDbEntity
  8
Layer0004
  6
Continuous
 62
     7
370
    18
100
AcDbCircle
 10
-75.8827723454597
 20
9.090001270987859
 30
0.0
 40
10.25
  0
CIRCLE
  5
476
330
1F
100
AcDbEntity
  8
Layer0004
  6
Continuous
 62
     7
370
    18
100
AcDbCircle
 10
-75.8827723454597
 20
9.090001270987859
 30
0.0
 40
14.5
  0
CIRCLE
  5
477
330
1F
100
AcDbEntity
  8
Layer0004
  6
Continuous
 62
     7
370
    18
100
AcDbCircle
 10
-75.8827723454597
 20
9.090001270987859
 30
0.0
 40
15.5
  0
CIRCLE
  5
478
330
1F
100
AcDbEntity
  8
Layer0004
  6
Continuous
 62
     7
370
    18
100
AcDbCircle
 10
-75.8827723454597
 20
9.090001270987859
 30
0.0
 40
29.0
  0
LINE
  5
479
330
1F
100
AcDbEntity
  8
Layer0004
  6
Continuous
 62
     7
370
    18
100
AcDbLine
 10
-2.882772345459685
 20
34.09000127098786
 30
0.0
 11
-2.882772345459685
 21
-15.90999872901214
 31
0.0
  0
ARC
  5
47A
330
1F
100
AcDbEntity
  8
Layer0004
  6
Continuous
 62
     7
370
    18
100
AcDbCircle
 10
1.117227654540315
 20
34.09000127098786
 30
0.0
 40
4.0
100
AcDbArc
 50
90.0
 51
180.0
  0
LINE
  5
47B
330
1F
100
AcDbEntity
  8
Layer0004
  6
Continuous
 62
     7
370
    18
100
AcDbLine
 10
1.117227654540315
 20
38.09000127098786
 30
0.0
 11
64.11722765454032
 21
38.09000127098786
 31
0.0
  0
LINE
  5
47C
330
1F
100
AcDbEntity
  8
Layer0004
  6
Continuous
 62
     7
370
    18
100
AcDbLine
 10
64.11722765454032
 20
38.09000127098786
 30
0.0
 11
93.11722765454033
 21
38.09000127098786
 31
0.0
  0
LINE
  5
47D
330
1F
100
AcDbEntity
  8
Layer0004
  6
Continuous
 62
     7
370
    18
100
AcDbLine
 10
95.11722765454033
 20
36.09000127098786
 30
0.0
 11
93.11722765454033
 21
38.09000127098786
 31
0.0
  0
LINE
  5
47E
330
1F
100
AcDbEntity
  8
Layer0004
  6
Continuous
 62
     7
370
    18
100
AcDbLine
 10
95.11722765454033
 20
36.09000127098786
 30
0.0
 11
95.11722765454033
 21
-17.90999872901214
 31
0.0
  0
LINE
  5
47F
330
1F
100
AcDbEntity
  8
Layer0004
  6
Continuous
 62
     7
370
    18
100
AcDbLine
 10
1.117227654540315
 20
-19.90999872901214
 30
0.0
 11
64.11722765454032
 21
-19.90999872901214
 31
0.0
  0
LINE
  5
480
330
1F
100
AcDbEntity
  8
Layer0004
  6
Continuous
 62
     7
370
    18
100
AcDbLine
 10
64.11722765454032
 20
-19.90999872901214
 30
0.0
 11
93.11722765454033
 21
-19.90999872901214
 31
0.0
  0
LINE
  5
481
330
1F
100
AcDbEntity
  8
Layer0004
  6
Continuous
 62
     7
370
    18
100
AcDbLine
 10
64.11722765454032
 20
38.09000127098786
 30
0.0
 11
64.11722765454032
 21
-19.90999872901214
 31
0.0
  0
LINE
  5
482
330
1F
100
AcDbEntity
  8
Layer0004
  6
Continuous
 62
     7
370
    18
100
AcDbLine
 10
95.11722765454033
 20
-17.90999872901214
 30
0.0
 11
93.11722765454033
 21
-19.90999872901214
 31
0.0
  0
ARC
  5
483
330
1F
100
AcDbEntity
  8
Layer0004
  6
Continuous
 62
     7
370
    18
100
AcDbCircle
 10
1.117227654540315
 20
-15.90999872901214
 30
0.0
 40
4.0
100
AcDbArc
 50
180.0
 51
270.0
  0
LINE
  5
484
330
1F
100
AcDbEntity
  8
Layer0010
  6
CENTER
 62
    56
370
    13
100
AcDbLine
 10
-84.11046634545968
 20
28.95341127098786
 30
0.0
 11
-81.81436534545969
 21
23.41013427098786
 31
0.0
  0
ARC
  5
485
330
1F
100
AcDbEntity
  8
Layer0010
  6
CENTER
 62
    56
370
    13
100
AcDbCircle
 10
-75.8827723454597
 20
9.090001270987859
 30
0.0
 40
18.5
100
AcDbArc
 50
102.5
 51
122.5
  0
LINE
  5
486
330
1F
100
AcDbEntity
  8
Layer0010
  6
CENTER
 62
    56
370
    13
100
AcDbLine
 10
-95.74618247487624
 20
17.31769495854867
 30
0.0
 11
-90.2029051307916
 21
15.02159478924246
 31
0.0
  0
ARC
  5
487
330
1F
100
AcDbEntity
  8
Layer0010
  6
CENTER
 62
    56
370
    13
100
AcDbCircle
 10
-75.8827723454597
 20
9.090001270987859
 30
0.0
 40
18.5
100
AcDbArc
 50
147.5
 51
167.5
  0
LINE
  5
488
330
1F
100
AcDbEntity
  8
Layer0010
  6
CENTER
 62
    56
370
    13
100
AcDbLine
 10
-95.74618234545969
 20
0.8623072709878663
 30
0.0
 11
-90.20290534545968
 21
3.158408270987852
 31
0.0
  0
ARC
  5
489
330
1F
100
AcDbEntity
  8
Layer0010
  6
CENTER
 62
    56
370
    13
100
AcDbCircle
 10
-75.8827723454597
 20
9.090001270987859
 30
0.0
 40
18.5
100
AcDbArc
 50
192.4999999999999
 51
212.5
  0
LINE
  5
48A
330
1F
100
AcDbEntity
  8
Layer0010
  6
CENTER
 62
    56
370
    13
100
AcDbLine
 10
-84.1104660330205
 20
-10.77340885842868
 30
0.0
 11
-81.81436586371429
 21
-5.230131514344048
 31
0.0
  0
ARC
  5
48B
330
1F
100
AcDbEntity
  8
Layer0010
  6
CENTER
 62
    56
370
    13
100
AcDbCircle
 10
-75.8827723454597
 20
9.090001270987859
 30
0.0
 40
18.5
100
AcDbArc
 50
237.5
 51
257.4999999999999
  0
LINE
  5
48C
330
1F
100
AcDbEntity
  8
Layer0010
  6
CENTER
 62
    56
370
    13
100
AcDbLine
 10
-67.6550783454597
 20
-10.77340872901213
 30
0.0
 11
-69.95117934545969
 21
-5.230131729012125
 31
0.0
  0
ARC
  5
48D
330
1F
100
AcDbEntity
  8
Layer0010
  6
CENTER
 62
    56
370
    13
100
AcDbCircle
 10
-75.8827723454597
 20
9.090001270987859
 30
0.0
 40
18.5
100
AcDbArc
 50
282.4999999999999
 51
302.4999999999999
  0
LINE
  5
48E
330
1F
100
AcDbEntity
  8
Layer0010
  6
CENTER
 62
    56
370
    13
100
AcDbLine
 10
-56.01936221604315
 20
0.8623075834270502
 30
0.0
 11
-61.56263956012779
 21
3.158407752733272
 31
0.0
  0
ARC
  5
48F
330
1F
100
AcDbEntity
  8
Layer0010
  6
CENTER
 62
    56
370
    13
100
AcDbCircle
 10
-75.8827723454597
 20
9.090001270987859
 30
0.0
 40
18.5
100
AcDbArc
 50
327.4999999999999
 51
347.4999999999999
  0
LINE
  5
490
330
1F
100
AcDbEntity
  8
Layer0010
  6
CENTER
 62
    56
370
    13
100
AcDbLine
 10
-56.01936234545969
 20
17.31769527098785
 30
0.0
 11
-61.5626393454597
 21
15.02159427098785
 31
0.0
  0
ARC
  5
491
330
1F
100
AcDbEntity
  8
Layer0010
  6
CENTER
 62
    56
370
    13
100
AcDbCircle
 10
-75.8827723454597
 20
9.090001270987859
 30
0.0
 40
18.5
100
AcDbArc
 50
12.49999999999995
 51
32.49999999999997
  0
LINE
  5
492
330
1F
100
AcDbEntity
  8
Layer0010
  6
CENTER
 62
    56
370
    13
100
AcDbLine
 10
-67.65507865789887
 20
28.9534114004044
 30
0.0
 11
-69.95117882720508
 21
23.41013405631976
 31
0.0
  0
ARC
  5
493
330
1F
100
AcDbEntity
  8
Layer0010
  6
CENTER
 62
    56
370
    13
100
AcDbCircle
 10
-75.8827723454597
 20
9.090001270987859
 30
0.0
 40
18.5
100
AcDbArc
 50
57.49999999999994
 51
77.49999999999997
  0
ELLIPSE
  5
494
330
1F
100
AcDbEntity
  8
0
  6
Continuous
 62
   150
370
    13
100
AcDbEllipse
 10
-82.96241584545967
 20
26.18177277098786
 30
0.0
 11
-1.016266885651277
 21
-0.4209515270274053
 31
0.0
210
0.0
220
0.0
230
1.0
 40
0.7071067811865475
 41
0.0
 42
6.283185307179586
  0
ELLIPSE
  5
495
330
1F
100
AcDbEntity
  8
0
  6
Continuous
 62
   150
370
    13
100
AcDbEllipse
 10
-92.9745438028339
 20
16.16964487389558
 30
0.0
 11
-0.4209515270274409
 21
-1.016266885651263
 31
0.0
210
0.0
220
0.0
230
1.0
 40
0.7071067811865475
 41
0.0
 42
6.283185307179586
  0
ELLIPSE
  5
496
330
1F
100
AcDbEntity
  8
0
  6
Continuous
 62
   150
370
    13
100
AcDbEllipse
 10
-92.97454384545969
 20
2.010357770987891
 30
0.0
 11
0.4209515270274125
 21
-1.016266885651284
 31
0.0
210
0.0
220
0.0
230
1.0
 40
0.7071067811865475
 41
0.0
 42
6.283185307179586
  0
ELLIPSE
  5
497
330
1F
100
AcDbEntity
  8
0
  6
Continuous
 62
   150
370
    13
100
AcDbEllipse
 10
-82.96241594836741
 20
-8.001770186386356
 30
0.0
 11
1.016266885651262
 21
-0.4209515270274338
 31
0.0
210
0.0
220
0.0
230
1.0
 40
0.7071067811865475
 41
0.0
 42
6.283185307179586
  0
ELLIPSE
  5
498
330
1F
100
AcDbEntity
  8
0
  6
Continuous
 62
   150
370
    13
100
AcDbEllipse
 10
-68.80312884545971
 20
-8.001770229012134
 30
0.0
 11
1.016266885651277
 21
0.4209515270274053
 31
0.0
210
0.0
220
0.0
230
1.0
 40
0.7071067811865475
 41
0.0
 42
6.283185307179586
  0
ELLIPSE
  5
499
330
1F
100
AcDbEntity
  8
0
  6
Continuous
 62
   150
370
    13
100
AcDbEllipse
 10
-58.79100088808548
 20
2.010357668080143
 30
0.0
 11
0.4209515270274409
 21
1.016266885651263
 31
0.0
210
0.0
220
0.0
230
1.0
 40
0.7071067811865475
 41
0.0
 42
6.283185307179586
  0
ELLIPSE
  5
49A
330
1F
100
AcDbEntity
  8
0
  6
Continuous
 62
   150
370
    13
100
AcDbEllipse
 10
-58.79100084545969
 20
16.16964477098784
 30
0.0
 11
-0.4209515270274125
 21
1.01626688565127
 31
0.0
210
0.0
220
0.0
230
1.0
 40
0.7071067811865475
 41
0.0
 42
6.283185307179586
  0
ELLIPSE
  5
49B
330
1F
100
AcDbEntity
  8
0
  6
Continuous
 62
   150
370
    13
100
AcDbEllipse
 10
-68.80312874255196
 20
26.18177272836208
 30
0.0
 11
-1.016266885651277
 21
0.4209515270274267
 31
0.0
210
0.0
220
0.0
230
1.0
 40
0.7071067811865475
 41
0.0
 42
6.283185307179586
  0
INSERT
  5
49C
330
1F
100
AcDbEntity
  8
Layer0008
  6
Continuous
100
AcDbBlockReference
  2
DC_GROUP_HFB-3M_5
 10
0.0
 20
0.0
 30
0.0
  0
LINE
  5
49D
330
1F
100
AcDbEntity
  8
Layer0008
  6
CENTER
 62
    56
370
    13
100
AcDbLine
 10
105.1172276545403
 20
9.090001270987859
 30
0.0
 11
-12.88277234545969
 21
9.090001270987859
 31
0.0
  0
VIEWPORT
  5
B5
102
{ACAD_XDICTIONARY
360
4A5
102
}
330
1B
100
AcDbEntity
 67
     1
  8
0
100
AcDbViewport
 10
-0.0016329999999698
 20
0.0
 30
0.0
 40
1140.0
 41
826.7325
 68
     1
 69
     1
 12
-0.0016329999999698
 22
0.0
 13
0.0
 23
0.0
 14
0.5
 24
0.5
 15
0.0
 25
0.0
 16
0.0
 26
0.0
 36
1.0
 17
0.0
 27
0.0
 37
0.0
 42
50.0
 43
0.0
 44
0.0
 45
826.7325
 50
0.0
 51
0.0
 72
   100
 90
   557152
  1

281
     0
 71
     1
 74
     0
110
0.0
120
0.0
130
0.0
111
1.0
121
0.0
131
0.0
112
0.0
122
1.0
132
0.0
 79
     0
146
0.0
  0
ENDSEC
  0
SECTION
  2
OBJECTS
  0
DICTIONARY
  5
C
330
0
100
AcDbDictionary
281
     1
  3
ACAD_GROUP
350
D
  3
ACAD_LAYOUT
350
1A
  3
ACAD_MATERIAL
350
43
  3
ACAD_MLEADERSTYLE
350
6B
  3
ACAD_MLINESTYLE
350
17
  3
ACAD_PLOTSETTINGS
350
19
  3
ACAD_PLOTSTYLENAME
350
E
  3
ACAD_SCALELIST
350
47
  3
ACAD_TABLESTYLE
350
69
  3
ACAD_VISUALSTYLE
350
2A
  3
AcDbVariableDictionary
350
49E
  0
DICTIONARY
  5
4A7
330
8
100
AcDbDictionary
280
     1
281
     1
  3
ACAD_XREC_ROUNDTRIP
360
4A8
  0
DICTIONARY
  5
4A5
330
B5
100
AcDbDictionary
280
     1
281
     1
  3
ACAD_XREC_ROUNDTRIP
360
4A6
  0
DICTIONARY
  5
D
102
{ACAD_REACTORS
330
C
102
}
330
C
100
AcDbDictionary
281
     1
  0
DICTIONARY
  5
1A
102
{ACAD_REACTORS
330
C
102
}
330
C
100
AcDbDictionary
281
     1
  3
Layout1
350
1E
  3
Layout2
350
26
  3
Model
350
22
  0
DICTIONARY
  5
43
102
{ACAD_REACTORS
330
C
102
}
330
C
100
AcDbDictionary
281
     1
  3
ByBlock
350
45
  3
ByLayer
350
44
  3
Global
350
46
  0
DICTIONARY
  5
6B
102
{ACAD_REACTORS
330
C
102
}
330
C
100
AcDbDictionary
281
     1
  3
Standard
350
6C
  0
DICTIONARY
  5
17
102
{ACAD_REACTORS
330
C
102
}
330
C
100
AcDbDictionary
281
     1
  3
Standard
350
18
  0
DICTIONARY
  5
19
102
{ACAD_REACTORS
330
C
102
}
330
C
100
AcDbDictionary
281
     1
  0
ACDBDICTIONARYWDFLT
  5
E
102
{ACAD_REACTORS
330
C
102
}
330
C
100
AcDbDictionary
281
     1
  3
Normal
350
F
100
AcDbDictionaryWithDefault
340
F
  0
DICTIONARY
  5
47
102
{ACAD_REACTORS
330
C
102
}
330
C
100
AcDbDictionary
281
     1
  3
A0
350
48
  3
A1
350
49
  3
A2
350
4A
  3
A3
350
4B
  3
A4
350
4C
  3
A5
350
4D
  3
A6
350
4E
  3
A7
350
4F
  3
A8
350
50
  3
A9
350
51
  3
B0
350
52
  3
B1
350
53
  3
B2
350
54
  3
B3
350
55
  3
B4
350
56
  3
B5
350
57
  3
B6
350
58
  3
B7
350
59
  3
B8
350
5A
  3
B9
350
5B
  3
C0
350
5C
  3
C1
350
5D
  3
C2
350
5E
  3
C3
350
5F
  3
C4
350
60
  3
C5
350
61
  3
C6
350
62
  3
C7
350
63
  3
C8
350
64
  3
C9
350
65
  3
D0
350
66
  3
D1
350
67
  3
D2
350
68
  0
DICTIONARY
  5
69
102
{ACAD_REACTORS
330
C
102
}
330
C
100
AcDbDictionary
281
     1
  3
Standard
350
6A
  0
DICTIONARY
  5
2A
102
{ACAD_REACTORS
330
C
102
}
330
C
100
AcDbDictionary
281
     1
  3
2dWireframe
350
2F
  3
Basic
350
32
  3
Brighten
350
36
  3
ColorChange
350
3A
  3
Conceptual
350
34
  3
Dim
350
35
  3
EdgeColorOff
350
3D
  3
Facepattern
350
39
  3
Flat
350
2B
  3
FlatWithEdges
350
2C
  3
Gouraud
350
2D
  3
GouraudWithEdges
350
2E
  3
Hidden
350
31
  3
JitterOff
350
3B
  3
Linepattern
350
38
  3
OverhangOff
350
3C
  3
Realistic
350
33
  3
Shaded
350
42
  3
Shaded with edges
350
41
  3
Shades of Gray
350
3E
  3
Sketchy
350
3F
  3
Thicken
350
37
  3
Wireframe
350
30
  3
X-Ray
350
40
  0
DICTIONARY
  5
49E
102
{ACAD_REACTORS
330
C
102
}
330
C
100
AcDbDictionary
281
     1
  3
CANNOSCALE
350
4A9
  3
CMLEADERSTYLE
350
4A0
  3
CTABLESTYLE
350
49F
  3
DIMASSOC
350
4A3
  3
HIDETEXT
350
4A4
  3
MSLTSCALE
350
4AA
  0
XRECORD
  5
4A8
102
{ACAD_REACTORS
330
4A7
102
}
330
4A7
100
AcDbXrecord
280
     1
102
VTR_0.000_0.000_1.000_1.000_VISUALSTYLE
340
2F
102
VTR_0.000_0.000_1.000_1.000_GRIDDISPLAY
 70
     3
102
VTR_0.000_0.000_1.000_1.000_GRIDMAJOR
 70
     5
102
VTR_0.000_0.000_1.000_1.000_DEFAULTLIGHTING
280
     1
102
VTR_0.000_0.000_1.000_1.000_DEFAULTLIGHTINGTYPE
 70
     1
102
VTR_0.000_0.000_1.000_1.000_BRIGHTNESS
141
0.0
102
VTR_0.000_0.000_1.000_1.000_CONTRAST
142
0.0
  0
XRECORD
  5
4A6
102
{ACAD_REACTORS
330
4A5
102
}
330
4A5
100
AcDbXrecord
280
     1
102
VISUALSTYLE
340
2F
102
GRIDDISPLAY
 70
     2
102
GRIDMAJOR
 70
     5
102
DEFAULTLIGHTING
280
     1
102
DEFAULTLIGHTINGTYPE
 70
     1
102
BRIGHTNESS
141
0.0
102
CONTRAST
142
0.0
  0
LAYOUT
  5
1E
102
{ACAD_REACTORS
330
1A
102
}
330
1A
100
AcDbPlotSettings
  1

  2
none_device
  4

  6

 40
0.0
 41
0.0
 42
0.0
 43
0.0
 44
0.0
 45
0.0
 46
0.0
 47
0.0
 48
0.0
 49
0.0
140
0.0
141
0.0
142
1.0
143
1.0
 70
   688
 72
     0
 73
     0
 74
     5
  7

 75
    16
147
1.0
148
0.0
149
0.0
100
AcDbLayout
  1
Layout1
 70
     0
 71
     1
 10
0.0
 20
0.0
 11
12.0
 21
9.0
 12
0.0
 22
0.0
 32
0.0
 14
1.000000000000000E+20
 24
1.000000000000000E+20
 34
1.000000000000000E+20
 15
-1.000000000000000E+20
 25
-1.000000000000000E+20
 35
-1.000000000000000E+20
146
0.0
 13
0.0
 23
0.0
 33
0.0
 16
1.0
 26
0.0
 36
0.0
 17
0.0
 27
1.0
 37
0.0
 76
     0
330
1B
331
B5
  0
LAYOUT
  5
26
102
{ACAD_REACTORS
330
1A
102
}
330
1A
100
AcDbPlotSettings
  1

  2
none_device
  4

  6

 40
0.0
 41
0.0
 42
0.0
 43
0.0
 44
0.0
 45
0.0
 46
0.0
 47
0.0
 48
0.0
 49
0.0
140
0.0
141
0.0
142
1.0
143
1.0
 70
   688
 72
     0
 73
     0
 74
     5
  7

 75
    16
147
1.0
148
0.0
149
0.0
100
AcDbLayout
  1
Layout2
 70
     1
 71
     2
 10
0.0
 20
0.0
 11
0.0
 21
0.0
 12
0.0
 22
0.0
 32
0.0
 14
0.0
 24
0.0
 34
0.0
 15
0.0
 25
0.0
 35
0.0
146
0.0
 13
0.0
 23
0.0
 33
0.0
 16
1.0
 26
0.0
 36
0.0
 17
0.0
 27
1.0
 37
0.0
 76
     0
330
23
  0
LAYOUT
  5
22
102
{ACAD_REACTORS
330
1A
102
}
330
1A
100
AcDbPlotSettings
  1

  2
none_device
  4
Letter_(8.50_x_11.00_Inches)
  6

 40
6.35
 41
6.35
 42
6.35000508
 43
6.35000508
 44
215.9
 45
279.4
 46
0.0
 47
0.0
 48
0.0
 49
0.0
140
0.0
141
0.0
142
1.0
143
1.0
 70
  1712
 72
     0
 73
     0
 74
     0
  7

 75
     0
147
1.0
148
0.0
149
0.0
100
AcDbLayout
  1
Model
 70
     1
 71
     0
 10
-210.0
 20
-148.5
 11
210.0
 21
148.5
 12
0.0
 22
0.0
 32
0.0
 14
-570.001633
 24
-413.36625
 34
0.0
 15
569.998367
 25
413.36625
 35
0.0
146
0.0
 13
0.0
 23
0.0
 33
0.0
 16
1.0
 26
0.0
 36
0.0
 17
0.0
 27
1.0
 37
0.0
 76
     0
330
1F
331
29
  0
MATERIAL
  5
45
102
{ACAD_REACTORS
330
43
102
}
102
{ACAD_XDICTIONARY
360
4DD
102
}
330
43
100
AcDbMaterial
  1
ByBlock
  0
MATERIAL
  5
44
102
{ACAD_REACTORS
330
43
102
}
102
{ACAD_XDICTIONARY
360
4DB
102
}
330
43
100
AcDbMaterial
  1
ByLayer
  0
MATERIAL
  5
46
102
{ACAD_REACTORS
330
43
102
}
102
{ACAD_XDICTIONARY
360
4DF
102
}
330
43
100
AcDbMaterial
  1
Global
  0
MLEADERSTYLE
  5
6C
102
{ACAD_REACTORS
330
6B
102
}
102
{ACAD_XDICTIONARY
360
4E2
102
}
330
6B
100
AcDbMLeaderStyle
170
     2
171
     1
172
     0
 90
        2
 40
0.0
 41
0.0
173
     1
 91
-1056964608
340
14
 92
       -2
290
     1
 42
0.09
291
     1
 43
0.36
  3
Standard
341
0
 44
0.18
300

342
11
174
     1
178
     6
175
     1
176
     0
 93
-1056964608
 45
0.18
292
     0
297
     0
 46
0.18
343
0
 94
-1056964608
 47
1.0
 49
1.0
140
1.0
293
     1
141
0.0
294
     1
177
     0
142
1.0
295
     0
296
     0
143
0.125
1001
ACAD_MLEADERVER
1070
     2
  0
MLINESTYLE
  5
18
102
{ACAD_REACTORS
330
17
102
}
330
17
100
AcDbMlineStyle
  2
Standard
 70
     0
  3

 62
   256
 51
90.0
 52
90.0
 71
     2
 49
0.5
 62
   256
  6
BYLAYER
 49
-0.5
 62
   256
  6
BYLAYER
  0
ACDBPLACEHOLDER
  5
F
102
{ACAD_REACTORS
330
E
102
}
330
E
  0
SCALE
  5
48
102
{ACAD_REACTORS
330
47
102
}
330
47
100
AcDbScale
 70
     0
300
1:1
140
1.0
141
1.0
290
     1
  0
SCALE
  5
49
102
{ACAD_REACTORS
330
47
102
}
330
47
100
AcDbScale
 70
     0
300
1:2
140
1.0
141
2.0
290
     0
  0
SCALE
  5
4A
102
{ACAD_REACTORS
330
47
102
}
330
47
100
AcDbScale
 70
     0
300
1:4
140
1.0
141
4.0
290
     0
  0
SCALE
  5
4B
102
{ACAD_REACTORS
330
47
102
}
330
47
100
AcDbScale
 70
     0
300
1:5
140
1.0
141
5.0
290
     0
  0
SCALE
  5
4C
102
{ACAD_REACTORS
330
47
102
}
330
47
100
AcDbScale
 70
     0
300
1:8
140
1.0
141
8.0
290
     0
  0
SCALE
  5
4D
102
{ACAD_REACTORS
330
47
102
}
330
47
100
AcDbScale
 70
     0
300
1:10
140
1.0
141
10.0
290
     0
  0
SCALE
  5
4E
102
{ACAD_REACTORS
330
47
102
}
330
47
100
AcDbScale
 70
     0
300
1:16
140
1.0
141
16.0
290
     0
  0
SCALE
  5
4F
102
{ACAD_REACTORS
330
47
102
}
330
47
100
AcDbScale
 70
     0
300
1:20
140
1.0
141
20.0
290
     0
  0
SCALE
  5
50
102
{ACAD_REACTORS
330
47
102
}
330
47
100
AcDbScale
 70
     0
300
1:30
140
1.0
141
30.0
290
     0
  0
SCALE
  5
51
102
{ACAD_REACTORS
330
47
102
}
330
47
100
AcDbScale
 70
     0
300
1:40
140
1.0
141
40.0
290
     0
  0
SCALE
  5
52
102
{ACAD_REACTORS
330
47
102
}
330
47
100
AcDbScale
 70
     0
300
1:50
140
1.0
141
50.0
290
     0
  0
SCALE
  5
53
102
{ACAD_REACTORS
330
47
102
}
330
47
100
AcDbScale
 70
     0
300
1:100
140
1.0
141
100.0
290
     0
  0
SCALE
  5
54
102
{ACAD_REACTORS
330
47
102
}
330
47
100
AcDbScale
 70
     0
300
2:1
140
2.0
141
1.0
290
     0
  0
SCALE
  5
55
102
{ACAD_REACTORS
330
47
102
}
330
47
100
AcDbScale
 70
     0
300
4:1
140
4.0
141
1.0
290
     0
  0
SCALE
  5
56
102
{ACAD_REACTORS
330
47
102
}
330
47
100
AcDbScale
 70
     0
300
8:1
140
8.0
141
1.0
290
     0
  0
SCALE
  5
57
102
{ACAD_REACTORS
330
47
102
}
330
47
100
AcDbScale
 70
     0
300
10:1
140
10.0
141
1.0
290
     0
  0
SCALE
  5
58
102
{ACAD_REACTORS
330
47
102
}
330
47
100
AcDbScale
 70
     0
300
100:1
140
100.0
141
1.0
290
     0
  0
SCALE
  5
59
102
{ACAD_REACTORS
330
47
102
}
330
47
100
AcDbScale
 70
     0
300
1/128" = 1'-0"
140
0.0078125
141
12.0
290
     0
  0
SCALE
  5
5A
102
{ACAD_REACTORS
330
47
102
}
330
47
100
AcDbScale
 70
     0
300
1/64" = 1'-0"
140
0.015625
141
12.0
290
     0
  0
SCALE
  5
5B
102
{ACAD_REACTORS
330
47
102
}
330
47
100
AcDbScale
 70
     0
300
1/32" = 1'-0"
140
0.03125
141
12.0
290
     0
  0
SCALE
  5
5C
102
{ACAD_REACTORS
330
47
102
}
330
47
100
AcDbScale
 70
     0
300
1/16" = 1'-0"
140
0.0625
141
12.0
290
     0
  0
SCALE
  5
5D
102
{ACAD_REACTORS
330
47
102
}
330
47
100
AcDbScale
 70
     0
300
3/32" = 1'-0"
140
0.09375
141
12.0
290
     0
  0
SCALE
  5
5E
102
{ACAD_REACTORS
330
47
102
}
330
47
100
AcDbScale
 70
     0
300
1/8" = 1'-0"
140
0.125
141
12.0
290
     0
  0
SCALE
  5
5F
102
{ACAD_REACTORS
330
47
102
}
330
47
100
AcDbScale
 70
     0
300
3/16" = 1'-0"
140
0.1875
141
12.0
290
     0
  0
SCALE
  5
60
102
{ACAD_REACTORS
330
47
102
}
330
47
100
AcDbScale
 70
     0
300
1/4" = 1'-0"
140
0.25
141
12.0
290
     0
  0
SCALE
  5
61
102
{ACAD_REACTORS
330
47
102
}
330
47
100
AcDbScale
 70
     0
300
3/8" = 1'-0"
140
0.375
141
12.0
290
     0
  0
SCALE
  5
62
102
{ACAD_REACTORS
330
47
102
}
330
47
100
AcDbScale
 70
     0
300
1/2" = 1'-0"
140
0.5
141
12.0
290
     0
  0
SCALE
  5
63
102
{ACAD_REACTORS
330
47
102
}
330
47
100
AcDbScale
 70
     0
300
3/4" = 1'-0"
140
0.75
141
12.0
290
     0
  0
SCALE
  5
64
102
{ACAD_REACTORS
330
47
102
}
330
47
100
AcDbScale
 70
     0
300
1" = 1'-0"
140
1.0
141
12.0
290
     0
  0
SCALE
  5
65
102
{ACAD_REACTORS
330
47
102
}
330
47
100
AcDbScale
 70
     0
300
1-1/2" = 1'-0"
140
1.5
141
12.0
290
     0
  0
SCALE
  5
66
102
{ACAD_REACTORS
330
47
102
}
330
47
100
AcDbScale
 70
     0
300
3" = 1'-0"
140
3.0
141
12.0
290
     0
  0
SCALE
  5
67
102
{ACAD_REACTORS
330
47
102
}
330
47
100
AcDbScale
 70
     0
300
6" = 1'-0"
140
6.0
141
12.0
290
     0
  0
SCALE
  5
68
102
{ACAD_REACTORS
330
47
102
}
330
47
100
AcDbScale
 70
     0
300
1'-0" = 1'-0"
140
12.0
141
12.0
290
     0
  0
TABLESTYLE
  5
6A
102
{ACAD_REACTORS
330
69
102
}
330
69
100
AcDbTableStyle
  3
Standard
 70
     0
 71
     0
 40
0.06
 41
0.06
280
     0
281
     0
  7
Standard
140
0.18
170
     2
 62
     0
 63
   257
283
     0
274
    -2
284
     1
 64
     0
275
    -2
285
     1
 65
     0
276
    -2
286
     1
 66
     0
277
    -2
287
     1
 67
     0
278
    -2
288
     1
 68
     0
279
    -2
289
     1
 69
     0
  7
Standard
140
0.25
170
     5
 62
     0
 63
   257
283
     0
274
    -2
284
     1
 64
     0
275
    -2
285
     1
 65
     0
276
    -2
286
     1
 66
     0
277
    -2
287
     1
 67
     0
278
    -2
288
     1
 68
     0
279
    -2
289
     1
 69
     0
  7
Standard
140
0.18
170
     5
 62
     0
 63
   257
283
     0
274
    -2
284
     1
 64
     0
275
    -2
285
     1
 65
     0
276
    -2
286
     1
 66
     0
277
    -2
287
     1
 67
     0
278
    -2
288
     1
 68
     0
279
    -2
289
     1
 69
     0
  0
VISUALSTYLE
  5
2F
102
{ACAD_REACTORS
330
2A
102
}
102
{ACAD_XDICTIONARY
360
4B3
102
}
330
2A
100
AcDbVisualStyle
  2
2dWireframe
 70
     4
 71
     0
 72
     2
 73
     0
 90
        0
 40
0.6
 41
30.0
 62
     5
 63
     7
 74
     1
 91
        4
 64
     7
 65
   257
 75
     1
175
     1
 42
1.0
 92
        0
 66
   257
 43
1.0
 76
     1
 77
     6
 78
     2
 67
     7
 79
     5
170
     0
171
     0
290
     0
174
     0
 93
        1
 44
0.0
173
     0
291
     0
 45
0.0
1001
ACAD
1000
AcDbSavedByObjectVersion
1070
     0
  0
VISUALSTYLE
  5
32
102
{ACAD_REACTORS
330
2A
102
}
102
{ACAD_XDICTIONARY
360
4B9
102
}
330
2A
100
AcDbVisualStyle
  2
Basic
 70
     7
 71
     1
 72
     0
 73
     1
 90
        0
 40
0.6
 41
30.0
 62
     5
 63
     7
 74
     0
 91
        4
 64
     7
 65
   257
 75
     1
175
     1
 42
1.0
 92
        8
 66
     7
 43
1.0
 76
     1
 77
     6
 78
     2
 67
     7
 79
     5
170
     0
171
     0
290
     0
174
     0
 93
        1
 44
0.0
173
     0
291
     1
 45
0.0
1001
ACAD
1000
AcDbSavedByObjectVersion
1070
     0
  0
VISUALSTYLE
  5
36
102
{ACAD_REACTORS
330
2A
102
}
102
{ACAD_XDICTIONARY
360
4C1
102
}
330
2A
100
AcDbVisualStyle
  2
Brighten
 70
    12
 71
     2
 72
     2
 73
     0
 90
        0
 40
0.6
 41
30.0
 62
     5
 63
     7
 74
     1
 91
        4
 64
     7
 65
   257
 75
     1
175
     1
 42
1.0
 92
        8
 66
     7
 43
1.0
 76
     1
 77
     6
 78
     2
 67
     7
 79
     5
170
     0
171
     0
290
     0
174
     0
 93
        1
 44
50.0
173
     0
291
     1
 45
0.0
1001
ACAD
1000
AcDbSavedByObjectVersion
1070
     0
  0
VISUALSTYLE
  5
3A
102
{ACAD_REACTORS
330
2A
102
}
102
{ACAD_XDICTIONARY
360
4C9
102
}
330
2A
100
AcDbVisualStyle
  2
ColorChange
 70
    16
 71
     2
 72
     2
 73
     3
 90
        0
 40
0.6
 41
30.0
 62
     5
 63
     8
 74
     1
 91
        4
 64
     7
 65
   257
 75
     1
175
     1
 42
1.0
 92
        8
 66
     8
 43
1.0
 76
     1
 77
     6
 78
     2
 67
     7
 79
     5
170
     0
171
     0
290
     0
174
     0
 93
        1
 44
0.0
173
     0
291
     1
 45
0.0
1001
ACAD
1000
AcDbSavedByObjectVersion
1070
     0
  0
VISUALSTYLE
  5
34
102
{ACAD_REACTORS
330
2A
102
}
102
{ACAD_XDICTIONARY
360
4BD
102
}
330
2A
100
AcDbVisualStyle
  2
Conceptual
 70
     9
 71
     3
 72
     2
 73
     0
 90
        0
 40
0.6
 41
30.0
 62
     5
 63
     7
 74
     2
 91
        2
 64
     7
 65
   257
 75
     1
175
     1
 42
179.0
 92
        8
 66
     7
 43
1.0
 76
     1
 77
     6
 78
     2
 67
     7
 79
     3
170
     0
171
     0
290
     0
174
     0
 93
        1
 44
0.0
173
     0
291
     0
 45
0.0
1001
ACAD
1000
AcDbSavedByObjectVersion
1070
     0
  0
VISUALSTYLE
  5
35
102
{ACAD_REACTORS
330
2A
102
}
102
{ACAD_XDICTIONARY
360
4BF
102
}
330
2A
100
AcDbVisualStyle
  2
Dim
 70
    11
 71
     2
 72
     2
 73
     0
 90
        0
 40
0.6
 41
30.0
 62
     5
 63
     7
 74
     1
 91
        4
 64
     7
 65
   257
 75
     1
175
     1
 42
1.0
 92
        8
 66
     7
 43
1.0
 76
     1
 77
     6
 78
     2
 67
     7
 79
     5
170
     0
171
     0
290
     0
174
     0
 93
        1
 44
-50.0
173
     0
291
     1
 45
0.0
1001
ACAD
1000
AcDbSavedByObjectVersion
1070
     0
  0
VISUALSTYLE
  5
3D
102
{ACAD_REACTORS
330
2A
102
}
102
{ACAD_XDICTIONARY
360
4CF
102
}
330
2A
100
AcDbVisualStyle
  2
EdgeColorOff
 70
    22
 71
     2
 72
     2
 73
     0
 90
        0
 40
0.6
 41
30.0
 62
     5
 63
     7
 74
     1
 91
        4
 64
     7
 65
   257
 75
     1
175
     1
 42
1.0
 92
        8
 66
     7
 43
1.0
 76
     1
 77
     6
 78
     2
 67
     7
 79
     5
170
     0
171
     0
290
     0
174
     0
 93
        1
 44
0.0
173
     0
291
     1
 45
0.0
1001
ACAD
1000
AcDbSavedByObjectVersion
1070
     0
  0
VISUALSTYLE
  5
39
102
{ACAD_REACTORS
330
2A
102
}
102
{ACAD_XDICTIONARY
360
4C7
102
}
330
2A
100
AcDbVisualStyle
  2
Facepattern
 70
    15
 71
     2
 72
     2
 73
     0
 90
        0
 40
0.6
 41
30.0
 62
     5
 63
     7
 74
     1
 91
        4
 64
     7
 65
   257
 75
     1
175
     1
 42
1.0
 92
        8
 66
     7
 43
1.0
 76
     1
 77
     6
 78
     2
 67
     7
 79
     5
170
     0
171
     0
290
     0
174
     0
 93
        1
 44
0.0
173
     0
291
     1
 45
0.0
1001
ACAD
1000
AcDbSavedByObjectVersion
1070
     0
  0
VISUALSTYLE
  5
2B
102
{ACAD_REACTORS
330
2A
102
}
102
{ACAD_XDICTIONARY
360
4AB
102
}
330
2A
100
AcDbVisualStyle
  2
Flat
 70
     0
 71
     2
 72
     1
 73
     1
 90
        2
 40
0.6
 41
30.0
 62
     5
 63
     7
 74
     0
 91
        0
 64
     7
 65
   257
 75
     1
175
     1
 42
1.0
 92
        8
 66
     7
 43
1.0
 76
     1
 77
     6
 78
     2
 67
     7
 79
     5
170
     0
171
     0
290
     0
174
     0
 93
       13
 44
0.0
173
     0
291
     1
 45
0.0
1001
ACAD
1000
AcDbSavedByObjectVersion
1070
     0
  0
VISUALSTYLE
  5
2C
102
{ACAD_REACTORS
330
2A
102
}
102
{ACAD_XDICTIONARY
360
4AD
102
}
330
2A
100
AcDbVisualStyle
  2
FlatWithEdges
 70
     1
 71
     2
 72
     1
 73
     1
 90
        2
 40
0.6
 41
30.0
 62
     5
 63
     7
 74
     1
 91
        0
 64
     7
 65
   257
 75
     1
175
     1
 42
1.0
 92
        0
 66
   257
 43
1.0
 76
     1
 77
     6
 78
     2
 67
     7
 79
     5
170
     0
171
     0
290
     0
174
     0
 93
       13
 44
0.0
173
     0
291
     1
 45
0.0
1001
ACAD
1000
AcDbSavedByObjectVersion
1070
     0
  0
VISUALSTYLE
  5
2D
102
{ACAD_REACTORS
330
2A
102
}
102
{ACAD_XDICTIONARY
360
4AF
102
}
330
2A
100
AcDbVisualStyle
  2
Gouraud
 70
     2
 71
     2
 72
     2
 73
     1
 90
        2
 40
0.6
 41
30.0
 62
     5
 63
     7
 74
     0
 91
        0
 64
     7
 65
   257
 75
     1
175
     1
 42
1.0
 92
        0
 66
     7
 43
1.0
 76
     1
 77
     6
 78
     2
 67
     7
 79
     5
170
     0
171
     0
290
     0
174
     0
 93
       13
 44
0.0
173
     0
291
     1
 45
0.0
1001
ACAD
1000
AcDbSavedByObjectVersion
1070
     0
  0
VISUALSTYLE
  5
2E
102
{ACAD_REACTORS
330
2A
102
}
102
{ACAD_XDICTIONARY
360
4B1
102
}
330
2A
100
AcDbVisualStyle
  2
GouraudWithEdges
 70
     3
 71
     2
 72
     2
 73
     1
 90
        2
 40
0.6
 41
30.0
 62
     5
 63
     7
 74
     1
 91
        0
 64
     7
 65
   257
 75
     1
175
     1
 42
1.0
 92
        0
 66
   257
 43
1.0
 76
     1
 77
     6
 78
     2
 67
     7
 79
     5
170
     0
171
     0
290
     0
174
     0
 93
       13
 44
0.0
173
     0
291
     1
 45
0.0
1001
ACAD
1000
AcDbSavedByObjectVersion
1070
     0
  0
VISUALSTYLE
  5
31
102
{ACAD_REACTORS
330
2A
102
}
102
{ACAD_XDICTIONARY
360
4B7
102
}
330
2A
100
AcDbVisualStyle
  2
Hidden
 70
     6
 71
     1
 72
     2
 73
     2
 90
        0
 40
0.6
 41
30.0
 62
     5
 63
     7
 74
     2
 91
        2
 64
     7
 65
   257
 75
     2
175
     1
 42
40.0
 92
        0
 66
   257
 43
1.0
 76
     1
 77
     6
 78
     2
 67
     7
 79
     3
170
     0
171
     0
290
     0
174
     0
 93
        1
 44
0.0
173
     0
291
     0
 45
0.0
1001
ACAD
1000
AcDbSavedByObjectVersion
1070
     0
  0
VISUALSTYLE
  5
3B
102
{ACAD_REACTORS
330
2A
102
}
102
{ACAD_XDICTIONARY
360
4CB
102
}
330
2A
100
AcDbVisualStyle
  2
JitterOff
 70
    20
 71
     2
 72
     2
 73
     0
 90
        0
 40
0.6
 41
30.0
 62
     5
 63
     7
 74
     1
 91
        4
 64
     7
 65
   257
 75
     1
175
     1
 42
1.0
 92
       10
 66
     7
 43
1.0
 76
     1
 77
     6
 78
     2
 67
     7
 79
     5
170
     0
171
     0
290
     0
174
     0
 93
        1
 44
0.0
173
     0
291
     1
 45
0.0
1001
ACAD
1000
AcDbSavedByObjectVersion
1070
     0
  0
VISUALSTYLE
  5
38
102
{ACAD_REACTORS
330
2A
102
}
102
{ACAD_XDICTIONARY
360
4C5
102
}
330
2A
100
AcDbVisualStyle
  2
Linepattern
 70
    14
 71
     2
 72
     2
 73
     0
 90
        0
 40
0.6
 41
30.0
 62
     5
 63
     7
 74
     1
 91
        4
 64
     7
 65
   257
 75
     7
175
     7
 42
1.0
 92
        8
 66
     7
 43
1.0
 76
     1
 77
     6
 78
     2
 67
     7
 79
     5
170
     0
171
     0
290
     0
174
     0
 93
        1
 44
0.0
173
     0
291
     1
 45
0.0
1001
ACAD
1000
AcDbSavedByObjectVersion
1070
     0
  0
VISUALSTYLE
  5
3C
102
{ACAD_REACTORS
330
2A
102
}
102
{ACAD_XDICTIONARY
360
4CD
102
}
330
2A
100
AcDbVisualStyle
  2
OverhangOff
 70
    21
 71
     2
 72
     2
 73
     0
 90
        0
 40
0.6
 41
30.0
 62
     5
 63
     7
 74
     1
 91
        4
 64
     7
 65
   257
 75
     1
175
     1
 42
1.0
 92
        9
 66
     7
 43
1.0
 76
     1
 77
     6
 78
     2
 67
     7
 79
     5
170
     0
171
     0
290
     0
174
     0
 93
        1
 44
0.0
173
     0
291
     1
 45
0.0
1001
ACAD
1000
AcDbSavedByObjectVersion
1070
     0
  0
VISUALSTYLE
  5
33
102
{ACAD_REACTORS
330
2A
102
}
102
{ACAD_XDICTIONARY
360
4BB
102
}
330
2A
100
AcDbVisualStyle
  2
Realistic
 70
     8
 71
     2
 72
     3
 73
     0
 90
        2
 40
0.6
 41
30.0
 62
     5
 63
     7
 74
     0
 91
        0
 64
     7
 65
   257
 75
     1
175
     1
 42
1.0
 92
        8
 66
   257
 43
1.0
 76
     1
 77
     6
 78
     2
 67
     7
 79
     3
170
     0
171
     0
290
     0
174
     0
 93
       13
 44
0.0
173
     0
291
     0
 45
0.0
1001
ACAD
1000
AcDbSavedByObjectVersion
1070
     0
  0
VISUALSTYLE
  5
42
102
{ACAD_REACTORS
330
2A
102
}
102
{ACAD_XDICTIONARY
360
4D9
102
}
330
2A
100
AcDbVisualStyle
  2
Shaded
 70
    27
 71
     2
 72
     2
 73
     1
 90
        2
 40
0.6
 41
30.0
 62
     5
 63
     7
 74
     0
 91
        4
 64
     7
 65
   257
 75
     1
175
     1
 42
1.0
 92
        8
 66
   257
 43
1.0
 76
     1
 77
     6
 78
     2
 67
     8
 79
     3
170
     0
171
     0
290
     0
174
     0
 93
        5
 44
0.0
173
     0
291
     0
 45
0.0
1001
ACAD
1000
AcDbSavedByObjectVersion
1070
     0
  0
VISUALSTYLE
  5
41
102
{ACAD_REACTORS
330
2A
102
}
102
{ACAD_XDICTIONARY
360
4D7
102
}
330
2A
100
AcDbVisualStyle
  2
Shaded with edges
 70
    26
 71
     2
 72
     2
 73
     1
 90
        2
 40
0.6
 41
30.0
 62
     5
 63
     7
 74
     1
 91
       10
 64
     7
 65
   257
 75
     2
175
     1
 42
1.0
 92
        8
 66
   257
 43
1.0
 76
     1
 77
     6
 78
     2
 67
     7
 79
     3
170
     0
171
     0
290
     0
174
     0
 93
        5
 44
0.0
173
     0
291
     0
 45
0.0
1001
ACAD
1000
AcDbSavedByObjectVersion
1070
     0
  0
VISUALSTYLE
  5
3E
102
{ACAD_REACTORS
330
2A
102
}
102
{ACAD_XDICTIONARY
360
4D1
102
}
330
2A
100
AcDbVisualStyle
  2
Shades of Gray
 70
    23
 71
     2
 72
     2
 73
     3
 90
        0
 40
0.6
 41
30.0
 62
     5
 63
     7
 74
     2
 91
        2
 64
     7
 65
     7
 75
     1
175
     1
 42
40.0
 92
        8
 66
     7
 43
1.0
 76
     1
 77
     6
 78
     2
 67
     7
 79
     3
170
     0
171
     0
290
     0
174
     0
 93
        1
 44
0.0
173
     0
291
     0
 45
0.0
1001
ACAD
1000
AcDbSavedByObjectVersion
1070
     0
  0
VISUALSTYLE
  5
3F
102
{ACAD_REACTORS
330
2A
102
}
102
{ACAD_XDICTIONARY
360
4D3
102
}
330
2A
100
AcDbVisualStyle
  2
Sketchy
 70
    24
 71
     1
 72
     2
 73
     2
 90
        0
 40
0.6
 41
30.0
 62
     5
 63
     7
 74
     2
 91
        2
 64
     7
 65
     7
 75
     1
175
     1
 42
40.0
 92
       11
 66
     7
 43
1.0
 76
     1
 77
     6
 78
     2
 67
     7
 79
     6
170
     0
171
     0
290
     0
174
     0
 93
        1
 44
0.0
173
     0
291
     0
 45
0.0
1001
ACAD
1000
AcDbSavedByObjectVersion
1070
     0
  0
VISUALSTYLE
  5
37
102
{ACAD_REACTORS
330
2A
102
}
102
{ACAD_XDICTIONARY
360
4C3
102
}
330
2A
100
AcDbVisualStyle
  2
Thicken
 70
    13
 71
     2
 72
     2
 73
     0
 90
        0
 40
0.6
 41
30.0
 62
     5
 63
     7
 74
     1
 91
        4
 64
     7
 65
   257
 75
     1
175
     1
 42
1.0
 92
       12
 66
     7
 43
1.0
 76
     1
 77
     6
 78
     2
 67
     7
 79
     5
170
     0
171
     0
290
     0
174
     0
 93
        1
 44
0.0
173
     0
291
     1
 45
0.0
1001
ACAD
1000
AcDbSavedByObjectVersion
1070
     0
  0
VISUALSTYLE
  5
30
102
{ACAD_REACTORS
330
2A
102
}
102
{ACAD_XDICTIONARY
360
4B5
102
}
330
2A
100
AcDbVisualStyle
  2
Wireframe
 70
     5
 71
     0
 72
     2
 73
     0
 90
        0
 40
0.6
 41
30.0
 62
     5
 63
     7
 74
     1
 91
        4
 64
     7
 65
   257
 75
     1
175
     1
 42
1.0
 92
        0
 66
   257
 43
1.0
 76
     1
 77
     6
 78
     2
 67
     7
 79
     3
170
     0
171
     0
290
     0
174
     0
 93
        1
 44
0.0
173
     0
291
     0
 45
0.0
1001
ACAD
1000
AcDbSavedByObjectVersion
1070
     0
  0
VISUALSTYLE
  5
40
102
{ACAD_REACTORS
330
2A
102
}
102
{ACAD_XDICTIONARY
360
4D5
102
}
330
2A
100
AcDbVisualStyle
  2
X-Ray
 70
    25
 71
     2
 72
     2
 73
     1
 90
        1
 40
0.5
 41
30.0
 62
     5
 63
     7
 74
     1
 91
        0
 64
     7
 65
   257
 75
     1
175
     1
 42
1.0
 92
        8
 66
     7
 43
1.0
 76
     1
 77
     6
 78
     2
 67
     7
 79
     3
170
     0
171
     0
290
     0
174
     0
 93
       13
 44
0.0
173
     0
291
     0
 45
0.0
1001
ACAD
1000
AcDbSavedByObjectVersion
1070
     0
  0
DICTIONARYVAR
  5
4A9
102
{ACAD_REACTORS
330
49E
102
}
330
49E
100
DictionaryVariables
280
     0
  1
1:1
  0
DICTIONARYVAR
  5
4A0
102
{ACAD_REACTORS
330
49E
102
}
330
49E
100
DictionaryVariables
280
     0
  1
Standard
  0
DICTIONARYVAR
  5
49F
102
{ACAD_REACTORS
330
49E
102
}
330
49E
100
DictionaryVariables
280
     0
  1
Standard
  0
DICTIONARYVAR
  5
4A3
102
{ACAD_REACTORS
330
49E
102
}
330
49E
100
DictionaryVariables
280
     0
  1
2
  0
DICTIONARYVAR
  5
4A4
102
{ACAD_REACTORS
330
49E
102
}
330
49E
100
DictionaryVariables
280
     0
  1
1
  0
DICTIONARYVAR
  5
4AA
102
{ACAD_REACTORS
330
49E
102
}
330
49E
100
DictionaryVariables
280
     0
  1
1
  0
DICTIONARY
  5
4DD
330
45
100
AcDbDictionary
280
     1
281
     1
  3
ACAD_XREC_ROUNDTRIP
360
4DE
  0
DICTIONARY
  5
4DB
330
44
100
AcDbDictionary
280
     1
281
     1
  3
ACAD_XREC_ROUNDTRIP
360
4DC
  0
DICTIONARY
  5
4DF
330
46
100
AcDbDictionary
280
     1
281
     1
  3
ACAD_XREC_ROUNDTRIP
360
4E0
  0
DICTIONARY
  5
4E2
330
6C
100
AcDbDictionary
280
     1
281
     1
  3
ACAD_XREC_ROUNDTRIP
360
4E3
  0
DICTIONARY
  5
4B3
330
2F
100
AcDbDictionary
280
     1
281
     1
  3
ACAD_XREC_ROUNDTRIP
360
4B4
  0
DICTIONARY
  5
4B9
330
32
100
AcDbDictionary
280
     1
281
     1
  3
ACAD_XREC_ROUNDTRIP
360
4BA
  0
DICTIONARY
  5
4C1
330
36
100
AcDbDictionary
280
     1
281
     1
  3
ACAD_XREC_ROUNDTRIP
360
4C2
  0
DICTIONARY
  5
4C9
330
3A
100
AcDbDictionary
280
     1
281
     1
  3
ACAD_XREC_ROUNDTRIP
360
4CA
  0
DICTIONARY
  5
4BD
330
34
100
AcDbDictionary
280
     1
281
     1
  3
ACAD_XREC_ROUNDTRIP
360
4BE
  0
DICTIONARY
  5
4BF
330
35
100
AcDbDictionary
280
     1
281
     1
  3
ACAD_XREC_ROUNDTRIP
360
4C0
  0
DICTIONARY
  5
4CF
330
3D
100
AcDbDictionary
280
     1
281
     1
  3
ACAD_XREC_ROUNDTRIP
360
4D0
  0
DICTIONARY
  5
4C7
330
39
100
AcDbDictionary
280
     1
281
     1
  3
ACAD_XREC_ROUNDTRIP
360
4C8
  0
DICTIONARY
  5
4AB
330
2B
100
AcDbDictionary
280
     1
281
     1
  3
ACAD_XREC_ROUNDTRIP
360
4AC
  0
DICTIONARY
  5
4AD
330
2C
100
AcDbDictionary
280
     1
281
     1
  3
ACAD_XREC_ROUNDTRIP
360
4AE
  0
DICTIONARY
  5
4AF
330
2D
100
AcDbDictionary
280
     1
281
     1
  3
ACAD_XREC_ROUNDTRIP
360
4B0
  0
DICTIONARY
  5
4B1
330
2E
100
AcDbDictionary
280
     1
281
     1
  3
ACAD_XREC_ROUNDTRIP
360
4B2
  0
DICTIONARY
  5
4B7
330
31
100
AcDbDictionary
280
     1
281
     1
  3
ACAD_XREC_ROUNDTRIP
360
4B8
  0
DICTIONARY
  5
4CB
330
3B
100
AcDbDictionary
280
     1
281
     1
  3
ACAD_XREC_ROUNDTRIP
360
4CC
  0
DICTIONARY
  5
4C5
330
38
100
AcDbDictionary
280
     1
281
     1
  3
ACAD_XREC_ROUNDTRIP
360
4C6
  0
DICTIONARY
  5
4CD
330
3C
100
AcDbDictionary
280
     1
281
     1
  3
ACAD_XREC_ROUNDTRIP
360
4CE
  0
DICTIONARY
  5
4BB
330
33
100
AcDbDictionary
280
     1
281
     1
  3
ACAD_XREC_ROUNDTRIP
360
4BC
  0
DICTIONARY
  5
4D9
330
42
100
AcDbDictionary
280
     1
281
     1
  3
ACAD_XREC_ROUNDTRIP
360
4DA
  0
DICTIONARY
  5
4D7
330
41
100
AcDbDictionary
280
     1
281
     1
  3
ACAD_XREC_ROUNDTRIP
360
4D8
  0
DICTIONARY
  5
4D1
330
3E
100
AcDbDictionary
280
     1
281
     1
  3
ACAD_XREC_ROUNDTRIP
360
4D2
  0
DICTIONARY
  5
4D3
330
3F
100
AcDbDictionary
280
     1
281
     1
  3
ACAD_XREC_ROUNDTRIP
360
4D4
  0
DICTIONARY
  5
4C3
330
37
100
AcDbDictionary
280
     1
281
     1
  3
ACAD_XREC_ROUNDTRIP
360
4C4
  0
DICTIONARY
  5
4B5
330
30
100
AcDbDictionary
280
     1
281
     1
  3
ACAD_XREC_ROUNDTRIP
360
4B6
  0
DICTIONARY
  5
4D5
330
40
100
AcDbDictionary
280
     1
281
     1
  3
ACAD_XREC_ROUNDTRIP
360
4D6
  0
XRECORD
  5
4DE
102
{ACAD_REACTORS
330
4DD
102
}
330
4DD
100
AcDbXrecord
280
     1
102
MATERIAL
148
0.0
149
0.0
149
0.0
 93
        0
 94
      127
282
     0
 72
     1
 77
     1
171
     1
175
     1
179
     1
273
     0
  0
XRECORD
  5
4DC
102
{ACAD_REACTORS
330
4DB
102
}
330
4DB
100
AcDbXrecord
280
     1
102
MATERIAL
148
0.0
149
0.0
149
0.0
 93
        0
 94
      127
282
     0
 72
     1
 77
     1
171
     1
175
     1
179
     1
273
     0
  0
XRECORD
  5
4E0
102
{ACAD_REACTORS
330
4DF
102
}
330
4DF
100
AcDbXrecord
280
     1
102
MATERIAL
148
0.0
149
0.0
149
0.0
 93
        0
 94
      127
282
     0
 72
     1
 77
     1
171
     1
175
     1
179
     1
273
     0
  0
XRECORD
  5
4E3
102
{ACAD_REACTORS
330
4E2
102
}
330
4E2
100
AcDbXrecord
280
     1
102
ACAD_ROUNDTRIP_2010_MLEADER_STYLE
  0
XRECORD
  5
4B4
102
{ACAD_REACTORS
330
4B3
102
}
330
4B3
100
AcDbXrecord
280
     1
102
RTVSPropertyOp0
 70
     1
102
RTVSPropertyOp1
 70
     1
102
RTVSPropertyOp2
 70
     1
102
RTVSPropertyOp3
 70
     1
102
RTVSPropertyOp4
 70
     1
102
RTVSPropertyOp5
 70
     1
102
RTVSPropertyOp6
 70
     1
102
RTVSPropertyOp7
 70
     1
102
RTVSPropertyOp8
 70
     1
102
RTVSPropertyOp9
 70
     1
102
RTVSPropertyOp10
 70
     1
102
RTVSPropertyOp11
 70
     1
102
RTVSPropertyOp12
 70
     1
102
RTVSPropertyOp13
 70
     1
102
RTVSPropertyOp14
 70
     1
102
RTVSPropertyOp15
 70
     1
102
RTVSPropertyOp16
 70
     1
102
RTVSPropertyOp17
 70
     1
102
RTVSPropertyOp18
 70
     1
102
RTVSPropertyOp19
 70
     1
102
RTVSPropertyOp20
 70
     1
102
RTVSPropertyOp21
 70
     1
102
RTVSPropertyOp22
 70
     1
102
RTVSPropertyOp23
 70
     1
102
RTVSPropertyOp24
 70
     1
102
RTVSPropertyOp25
 70
     1
102
RTVSPropertyOp26
 70
     1
102
RTVSPropertyOp27
 70
     1
102
RTVSPropertyOp28
 70
     1
102
RTVSPropertyOp29
 70
     1
102
RTVSPropertyOp30
 70
     1
102
RTVSPropertyOp31
 70
     1
102
RTVSPropertyOp32
 70
     1
102
RTVSPropertyOp33
 70
     1
102
RTVSPropertyOp34
 70
     1
102
RTVSPropertyOp35
 70
     1
102
RTVSPropertyOp36
 70
     1
102
RTVSPropertyOp37
 70
     1
102
RTVSPropertyOp38
 70
     1
102
RTVSPropertyOp39
 70
     1
102
RTVSPropertyOp40
 70
     1
102
RTVSPropertyOp41
 70
     1
102
RTVSPropertyOp42
 70
     1
102
RTVSPropertyOp43
 70
     1
102
RTVSPropertyOp44
 70
     1
102
RTVSPropertyOp45
 70
     1
102
RTVSPropertyOp46
 70
     1
102
RTVSPropertyOp47
 70
     1
102
RTVSPropertyOp48
 70
     1
102
RTVSPropertyOp49
 70
     1
102
RTVSPropertyOp50
 70
     1
102
RTVSPropertyOp51
 70
     0
102
RTVSPropertyOp52
 70
     0
102
RTVSPropertyOp53
 70
     1
102
RTVSPropertyOp54
 70
     1
102
RTVSPropertyOp55
 70
     1
102
RTVSPropertyOp56
 70
     1
102
RTVSPropertyOp57
 70
     1
102
RTVSPost2010Prop28
280
     1
102
RTVSPost2010PropOp28
 70
     1
102
RTVSPost2010Prop29
280
     1
102
RTVSPost2010PropOp29
 70
     1
102
RTVSPost2010Prop30
280
     0
102
RTVSPost2010PropOp30
 70
     1
102
RTVSPost2010Prop31
280
     0
102
RTVSPost2010PropOp31
 70
     1
102
RTVSPost2010Prop32
280
     0
102
RTVSPost2010PropOp32
 70
     1
102
RTVSPost2010Prop33
280
     0
102
RTVSPost2010PropOp33
 70
     1
102
RTVSPost2010Prop34
280
     0
102
RTVSPost2010PropOp34
 70
     1
102
RTVSPost2010Prop35
280
     0
102
RTVSPost2010PropOp35
 70
     1
102
RTVSPost2010Prop36
280
     0
102
RTVSPost2010PropOp36
 70
     1
102
RTVSPost2010Prop37
 90
       50
102
RTVSPost2010PropOp37
 70
     1
102
RTVSPost2010Prop38
140
0.0
102
RTVSPost2010PropOp38
 70
     1
102
RTVSPost2010Prop39
140
1.0
102
RTVSPost2010PropOp39
 70
     1
102
RTVSPost2010Prop40
 90
        0
102
RTVSPost2010PropOp40
 70
     1
102
RTVSPost2010Prop41ColorIndex
 90
       18
102
RTVSPost2010Prop41ColorRGB
 90
        0
102
RTVSPost2010PropOp41
 70
     1
102
RTVSPost2010Prop42
 90
       50
102
RTVSPost2010PropOp42
 70
     1
102
RTVSPost2010Prop43
 90
        3
102
RTVSPost2010PropOp43
 70
     1
102
RTVSPost2010Prop44ColorIndex
 90
        5
102
RTVSPost2010Prop44ColorRGB
 90
      255
102
RTVSPost2010PropOp44
 70
     1
102
RTVSPost2010Prop45
280
     0
102
RTVSPost2010PropOp45
 70
     1
102
RTVSPost2010Prop46
 90
       50
102
RTVSPost2010PropOp46
 70
     1
102
RTVSPost2010Prop47
 90
       50
102
RTVSPost2010PropOp47
 70
     1
102
RTVSPost2010Prop48
 90
       50
102
RTVSPost2010PropOp48
 70
     1
102
RTVSPost2010Prop49
280
     0
102
RTVSPost2010PropOp49
 70
     1
102
RTVSPost2010Prop50
 90
       50
102
RTVSPost2010PropOp50
 70
     1
102
RTVSPost2010Prop51ColorIndex
 90
      256
102
RTVSPost2010Prop51ColorRGB
 90
-16777216
102
RTVSPost2010PropOp51
 70
     0
102
RTVSPost2010Prop52
140
1.0
102
RTVSPost2010PropOp52
 70
     0
102
RTVSPost2010Prop53
 90
        2
102
RTVSPost2010PropOp53
 70
     1
102
RTVSPost2010Prop54
  1
strokes_ogs.tif
102
RTVSPost2010PropOp54
 70
     1
102
RTVSPost2010Prop55
280
     0
102
RTVSPost2010PropOp55
 70
     1
102
RTVSPost2010Prop56
140
1.0
102
RTVSPost2010PropOp56
 70
     1
102
RTVSPost2010Prop57
140
1.0
102
RTVSPost2010PropOp57
 70
     1
  0
XRECORD
  5
4BA
102
{ACAD_REACTORS
330
4B9
102
}
330
4B9
100
AcDbXrecord
280
     1
102
RTVSPropertyOp0
 70
     1
102
RTVSPropertyOp1
 70
     1
102
RTVSPropertyOp2
 70
     1
102
RTVSPropertyOp3
 70
     1
102
RTVSPropertyOp4
 70
     1
102
RTVSPropertyOp5
 70
     1
102
RTVSPropertyOp6
 70
     1
102
RTVSPropertyOp7
 70
     1
102
RTVSPropertyOp8
 70
     1
102
RTVSPropertyOp9
 70
     1
102
RTVSPropertyOp10
 70
     1
102
RTVSPropertyOp11
 70
     1
102
RTVSPropertyOp12
 70
     1
102
RTVSPropertyOp13
 70
     1
102
RTVSPropertyOp14
 70
     1
102
RTVSPropertyOp15
 70
     1
102
RTVSPropertyOp16
 70
     1
102
RTVSPropertyOp17
 70
     1
102
RTVSPropertyOp18
 70
     1
102
RTVSPropertyOp19
 70
     1
102
RTVSPropertyOp20
 70
     1
102
RTVSPropertyOp21
 70
     1
102
RTVSPropertyOp22
 70
     1
102
RTVSPropertyOp23
 70
     1
102
RTVSPropertyOp24
 70
     1
102
RTVSPropertyOp25
 70
     1
102
RTVSPropertyOp26
 70
     1
102
RTVSPropertyOp27
 70
     1
102
RTVSPropertyOp28
 70
     1
102
RTVSPropertyOp29
 70
     1
102
RTVSPropertyOp30
 70
     1
102
RTVSPropertyOp31
 70
     1
102
RTVSPropertyOp32
 70
     1
102
RTVSPropertyOp33
 70
     1
102
RTVSPropertyOp34
 70
     1
102
RTVSPropertyOp35
 70
     1
102
RTVSPropertyOp36
 70
     1
102
RTVSPropertyOp37
 70
     1
102
RTVSPropertyOp38
 70
     1
102
RTVSPropertyOp39
 70
     1
102
RTVSPropertyOp40
 70
     1
102
RTVSPropertyOp41
 70
     1
102
RTVSPropertyOp42
 70
     1
102
RTVSPropertyOp43
 70
     1
102
RTVSPropertyOp44
 70
     1
102
RTVSPropertyOp45
 70
     1
102
RTVSPropertyOp46
 70
     1
102
RTVSPropertyOp47
 70
     1
102
RTVSPropertyOp48
 70
     1
102
RTVSPropertyOp49
 70
     1
102
RTVSPropertyOp50
 70
     1
102
RTVSPropertyOp51
 70
     0
102
RTVSPropertyOp52
 70
     0
102
RTVSPropertyOp53
 70
     1
102
RTVSPropertyOp54
 70
     1
102
RTVSPropertyOp55
 70
     1
102
RTVSPropertyOp56
 70
     1
102
RTVSPropertyOp57
 70
     1
102
RTVSPost2010Prop28
280
     0
102
RTVSPost2010PropOp28
 70
     1
102
RTVSPost2010Prop29
280
     1
102
RTVSPost2010PropOp29
 70
     1
102
RTVSPost2010Prop30
280
     1
102
RTVSPost2010PropOp30
 70
     1
102
RTVSPost2010Prop31
280
     0
102
RTVSPost2010PropOp31
 70
     1
102
RTVSPost2010Prop32
280
     0
102
RTVSPost2010PropOp32
 70
     1
102
RTVSPost2010Prop33
280
     0
102
RTVSPost2010PropOp33
 70
     1
102
RTVSPost2010Prop34
280
     0
102
RTVSPost2010PropOp34
 70
     1
102
RTVSPost2010Prop35
280
     0
102
RTVSPost2010PropOp35
 70
     1
102
RTVSPost2010Prop36
280
     0
102
RTVSPost2010PropOp36
 70
     1
102
RTVSPost2010Prop37
 90
       50
102
RTVSPost2010PropOp37
 70
     1
102
RTVSPost2010Prop38
140
0.0
102
RTVSPost2010PropOp38
 70
     1
102
RTVSPost2010Prop39
140
1.0
102
RTVSPost2010PropOp39
 70
     1
102
RTVSPost2010Prop40
 90
        0
102
RTVSPost2010PropOp40
 70
     1
102
RTVSPost2010Prop41ColorIndex
 90
       18
102
RTVSPost2010Prop41ColorRGB
 90
        0
102
RTVSPost2010PropOp41
 70
     1
102
RTVSPost2010Prop42
 90
       50
102
RTVSPost2010PropOp42
 70
     1
102
RTVSPost2010Prop43
 90
        3
102
RTVSPost2010PropOp43
 70
     1
102
RTVSPost2010Prop44ColorIndex
 90
        5
102
RTVSPost2010Prop44ColorRGB
 90
      255
102
RTVSPost2010PropOp44
 70
     1
102
RTVSPost2010Prop45
280
     0
102
RTVSPost2010PropOp45
 70
     1
102
RTVSPost2010Prop46
 90
       50
102
RTVSPost2010PropOp46
 70
     1
102
RTVSPost2010Prop47
 90
       50
102
RTVSPost2010PropOp47
 70
     1
102
RTVSPost2010Prop48
 90
       50
102
RTVSPost2010PropOp48
 70
     1
102
RTVSPost2010Prop49
280
     0
102
RTVSPost2010PropOp49
 70
     1
102
RTVSPost2010Prop50
 90
       50
102
RTVSPost2010PropOp50
 70
     1
102
RTVSPost2010Prop51ColorIndex
 90
      256
102
RTVSPost2010Prop51ColorRGB
 90
-16777216
102
RTVSPost2010PropOp51
 70
     0
102
RTVSPost2010Prop52
140
1.0
102
RTVSPost2010PropOp52
 70
     0
102
RTVSPost2010Prop53
 90
        2
102
RTVSPost2010PropOp53
 70
     1
102
RTVSPost2010Prop54
  1
strokes_ogs.tif
102
RTVSPost2010PropOp54
 70
     1
102
RTVSPost2010Prop55
280
     0
102
RTVSPost2010PropOp55
 70
     1
102
RTVSPost2010Prop56
140
1.0
102
RTVSPost2010PropOp56
 70
     1
102
RTVSPost2010Prop57
140
1.0
102
RTVSPost2010PropOp57
 70
     1
  0
XRECORD
  5
4C2
102
{ACAD_REACTORS
330
4C1
102
}
330
4C1
100
AcDbXrecord
280
     1
102
RTVSPropertyOp0
 70
     1
102
RTVSPropertyOp1
 70
     1
102
RTVSPropertyOp2
 70
     1
102
RTVSPropertyOp3
 70
     1
102
RTVSPropertyOp4
 70
     1
102
RTVSPropertyOp5
 70
     1
102
RTVSPropertyOp6
 70
     1
102
RTVSPropertyOp7
 70
     1
102
RTVSPropertyOp8
 70
     1
102
RTVSPropertyOp9
 70
     1
102
RTVSPropertyOp10
 70
     1
102
RTVSPropertyOp11
 70
     1
102
RTVSPropertyOp12
 70
     1
102
RTVSPropertyOp13
 70
     1
102
RTVSPropertyOp14
 70
     1
102
RTVSPropertyOp15
 70
     1
102
RTVSPropertyOp16
 70
     1
102
RTVSPropertyOp17
 70
     1
102
RTVSPropertyOp18
 70
     1
102
RTVSPropertyOp19
 70
     1
102
RTVSPropertyOp20
 70
     1
102
RTVSPropertyOp21
 70
     1
102
RTVSPropertyOp22
 70
     1
102
RTVSPropertyOp23
 70
     1
102
RTVSPropertyOp24
 70
     1
102
RTVSPropertyOp25
 70
     1
102
RTVSPropertyOp26
 70
     1
102
RTVSPropertyOp27
 70
     1
102
RTVSPropertyOp28
 70
     1
102
RTVSPropertyOp29
 70
     1
102
RTVSPropertyOp30
 70
     1
102
RTVSPropertyOp31
 70
     1
102
RTVSPropertyOp32
 70
     1
102
RTVSPropertyOp33
 70
     1
102
RTVSPropertyOp34
 70
     1
102
RTVSPropertyOp35
 70
     1
102
RTVSPropertyOp36
 70
     1
102
RTVSPropertyOp37
 70
     1
102
RTVSPropertyOp38
 70
     1
102
RTVSPropertyOp39
 70
     1
102
RTVSPropertyOp40
 70
     1
102
RTVSPropertyOp41
 70
     1
102
RTVSPropertyOp42
 70
     1
102
RTVSPropertyOp43
 70
     1
102
RTVSPropertyOp44
 70
     1
102
RTVSPropertyOp45
 70
     1
102
RTVSPropertyOp46
 70
     1
102
RTVSPropertyOp47
 70
     1
102
RTVSPropertyOp48
 70
     1
102
RTVSPropertyOp49
 70
     1
102
RTVSPropertyOp50
 70
     1
102
RTVSPropertyOp51
 70
     0
102
RTVSPropertyOp52
 70
     0
102
RTVSPropertyOp53
 70
     1
102
RTVSPropertyOp54
 70
     1
102
RTVSPropertyOp55
 70
     1
102
RTVSPropertyOp56
 70
     1
102
RTVSPropertyOp57
 70
     1
102
RTVSPost2010Prop28
280
     0
102
RTVSPost2010PropOp28
 70
     1
102
RTVSPost2010Prop29
280
     1
102
RTVSPost2010PropOp29
 70
     1
102
RTVSPost2010Prop30
280
     1
102
RTVSPost2010PropOp30
 70
     1
102
RTVSPost2010Prop31
280
     0
102
RTVSPost2010PropOp31
 70
     1
102
RTVSPost2010Prop32
280
     0
102
RTVSPost2010PropOp32
 70
     1
102
RTVSPost2010Prop33
280
     0
102
RTVSPost2010PropOp33
 70
     1
102
RTVSPost2010Prop34
280
     0
102
RTVSPost2010PropOp34
 70
     1
102
RTVSPost2010Prop35
280
     0
102
RTVSPost2010PropOp35
 70
     1
102
RTVSPost2010Prop36
280
     0
102
RTVSPost2010PropOp36
 70
     1
102
RTVSPost2010Prop37
 90
       50
102
RTVSPost2010PropOp37
 70
     1
102
RTVSPost2010Prop38
140
0.0
102
RTVSPost2010PropOp38
 70
     1
102
RTVSPost2010Prop39
140
1.0
102
RTVSPost2010PropOp39
 70
     1
102
RTVSPost2010Prop40
 90
        0
102
RTVSPost2010PropOp40
 70
     1
102
RTVSPost2010Prop41ColorIndex
 90
       18
102
RTVSPost2010Prop41ColorRGB
 90
        0
102
RTVSPost2010PropOp41
 70
     1
102
RTVSPost2010Prop42
 90
       50
102
RTVSPost2010PropOp42
 70
     1
102
RTVSPost2010Prop43
 90
        3
102
RTVSPost2010PropOp43
 70
     1
102
RTVSPost2010Prop44ColorIndex
 90
        5
102
RTVSPost2010Prop44ColorRGB
 90
      255
102
RTVSPost2010PropOp44
 70
     1
102
RTVSPost2010Prop45
280
     0
102
RTVSPost2010PropOp45
 70
     1
102
RTVSPost2010Prop46
 90
       50
102
RTVSPost2010PropOp46
 70
     1
102
RTVSPost2010Prop47
 90
       50
102
RTVSPost2010PropOp47
 70
     1
102
RTVSPost2010Prop48
 90
       50
102
RTVSPost2010PropOp48
 70
     1
102
RTVSPost2010Prop49
280
     0
102
RTVSPost2010PropOp49
 70
     1
102
RTVSPost2010Prop50
 90
       50
102
RTVSPost2010PropOp50
 70
     1
102
RTVSPost2010Prop51ColorIndex
 90
      256
102
RTVSPost2010Prop51ColorRGB
 90
-16777216
102
RTVSPost2010PropOp51
 70
     0
102
RTVSPost2010Prop52
140
1.0
102
RTVSPost2010PropOp52
 70
     0
102
RTVSPost2010Prop53
 90
        2
102
RTVSPost2010PropOp53
 70
     1
102
RTVSPost2010Prop54
  1
strokes_ogs.tif
102
RTVSPost2010PropOp54
 70
     1
102
RTVSPost2010Prop55
280
     0
102
RTVSPost2010PropOp55
 70
     1
102
RTVSPost2010Prop56
140
1.0
102
RTVSPost2010PropOp56
 70
     1
102
RTVSPost2010Prop57
140
1.0
102
RTVSPost2010PropOp57
 70
     1
  0
XRECORD
  5
4CA
102
{ACAD_REACTORS
330
4C9
102
}
330
4C9
100
AcDbXrecord
280
     1
102
RTVSPropertyOp0
 70
     1
102
RTVSPropertyOp1
 70
     1
102
RTVSPropertyOp2
 70
     1
102
RTVSPropertyOp3
 70
     1
102
RTVSPropertyOp4
 70
     1
102
RTVSPropertyOp5
 70
     1
102
RTVSPropertyOp6
 70
     1
102
RTVSPropertyOp7
 70
     1
102
RTVSPropertyOp8
 70
     1
102
RTVSPropertyOp9
 70
     1
102
RTVSPropertyOp10
 70
     1
102
RTVSPropertyOp11
 70
     1
102
RTVSPropertyOp12
 70
     1
102
RTVSPropertyOp13
 70
     1
102
RTVSPropertyOp14
 70
     1
102
RTVSPropertyOp15
 70
     1
102
RTVSPropertyOp16
 70
     1
102
RTVSPropertyOp17
 70
     1
102
RTVSPropertyOp18
 70
     1
102
RTVSPropertyOp19
 70
     1
102
RTVSPropertyOp20
 70
     1
102
RTVSPropertyOp21
 70
     1
102
RTVSPropertyOp22
 70
     1
102
RTVSPropertyOp23
 70
     1
102
RTVSPropertyOp24
 70
     1
102
RTVSPropertyOp25
 70
     1
102
RTVSPropertyOp26
 70
     1
102
RTVSPropertyOp27
 70
     1
102
RTVSPropertyOp28
 70
     1
102
RTVSPropertyOp29
 70
     1
102
RTVSPropertyOp30
 70
     1
102
RTVSPropertyOp31
 70
     1
102
RTVSPropertyOp32
 70
     1
102
RTVSPropertyOp33
 70
     1
102
RTVSPropertyOp34
 70
     1
102
RTVSPropertyOp35
 70
     1
102
RTVSPropertyOp36
 70
     1
102
RTVSPropertyOp37
 70
     1
102
RTVSPropertyOp38
 70
     1
102
RTVSPropertyOp39
 70
     1
102
RTVSPropertyOp40
 70
     1
102
RTVSPropertyOp41
 70
     1
102
RTVSPropertyOp42
 70
     1
102
RTVSPropertyOp43
 70
     1
102
RTVSPropertyOp44
 70
     1
102
RTVSPropertyOp45
 70
     1
102
RTVSPropertyOp46
 70
     1
102
RTVSPropertyOp47
 70
     1
102
RTVSPropertyOp48
 70
     1
102
RTVSPropertyOp49
 70
     1
102
RTVSPropertyOp50
 70
     1
102
RTVSPropertyOp51
 70
     0
102
RTVSPropertyOp52
 70
     0
102
RTVSPropertyOp53
 70
     1
102
RTVSPropertyOp54
 70
     1
102
RTVSPropertyOp55
 70
     1
102
RTVSPropertyOp56
 70
     1
102
RTVSPropertyOp57
 70
     1
102
RTVSPost2010Prop28
280
     0
102
RTVSPost2010PropOp28
 70
     1
102
RTVSPost2010Prop29
280
     1
102
RTVSPost2010PropOp29
 70
     1
102
RTVSPost2010Prop30
280
     1
102
RTVSPost2010PropOp30
 70
     1
102
RTVSPost2010Prop31
280
     0
102
RTVSPost2010PropOp31
 70
     1
102
RTVSPost2010Prop32
280
     0
102
RTVSPost2010PropOp32
 70
     1
102
RTVSPost2010Prop33
280
     0
102
RTVSPost2010PropOp33
 70
     1
102
RTVSPost2010Prop34
280
     0
102
RTVSPost2010PropOp34
 70
     1
102
RTVSPost2010Prop35
280
     0
102
RTVSPost2010PropOp35
 70
     1
102
RTVSPost2010Prop36
280
     0
102
RTVSPost2010PropOp36
 70
     1
102
RTVSPost2010Prop37
 90
       50
102
RTVSPost2010PropOp37
 70
     1
102
RTVSPost2010Prop38
140
0.0
102
RTVSPost2010PropOp38
 70
     1
102
RTVSPost2010Prop39
140
1.0
102
RTVSPost2010PropOp39
 70
     1
102
RTVSPost2010Prop40
 90
        0
102
RTVSPost2010PropOp40
 70
     1
102
RTVSPost2010Prop41ColorIndex
 90
       18
102
RTVSPost2010Prop41ColorRGB
 90
        0
102
RTVSPost2010PropOp41
 70
     1
102
RTVSPost2010Prop42
 90
       50
102
RTVSPost2010PropOp42
 70
     1
102
RTVSPost2010Prop43
 90
        3
102
RTVSPost2010PropOp43
 70
     1
102
RTVSPost2010Prop44ColorIndex
 90
        5
102
RTVSPost2010Prop44ColorRGB
 90
      255
102
RTVSPost2010PropOp44
 70
     1
102
RTVSPost2010Prop45
280
     0
102
RTVSPost2010PropOp45
 70
     1
102
RTVSPost2010Prop46
 90
       50
102
RTVSPost2010PropOp46
 70
     1
102
RTVSPost2010Prop47
 90
       50
102
RTVSPost2010PropOp47
 70
     1
102
RTVSPost2010Prop48
 90
       50
102
RTVSPost2010PropOp48
 70
     1
102
RTVSPost2010Prop49
280
     0
102
RTVSPost2010PropOp49
 70
     1
102
RTVSPost2010Prop50
 90
       50
102
RTVSPost2010PropOp50
 70
     1
102
RTVSPost2010Prop51ColorIndex
 90
      256
102
RTVSPost2010Prop51ColorRGB
 90
-16777216
102
RTVSPost2010PropOp51
 70
     0
102
RTVSPost2010Prop52
140
1.0
102
RTVSPost2010PropOp52
 70
     0
102
RTVSPost2010Prop53
 90
        2
102
RTVSPost2010PropOp53
 70
     1
102
RTVSPost2010Prop54
  1
strokes_ogs.tif
102
RTVSPost2010PropOp54
 70
     1
102
RTVSPost2010Prop55
280
     0
102
RTVSPost2010PropOp55
 70
     1
102
RTVSPost2010Prop56
140
1.0
102
RTVSPost2010PropOp56
 70
     1
102
RTVSPost2010Prop57
140
1.0
102
RTVSPost2010PropOp57
 70
     1
  0
XRECORD
  5
4BE
102
{ACAD_REACTORS
330
4BD
102
}
330
4BD
100
AcDbXrecord
280
     1
102
RTVSPropertyOp0
 70
     1
102
RTVSPropertyOp1
 70
     1
102
RTVSPropertyOp2
 70
     1
102
RTVSPropertyOp3
 70
     1
102
RTVSPropertyOp4
 70
     1
102
RTVSPropertyOp5
 70
     1
102
RTVSPropertyOp6
 70
     1
102
RTVSPropertyOp7
 70
     1
102
RTVSPropertyOp8
 70
     1
102
RTVSPropertyOp9
 70
     1
102
RTVSPropertyOp10
 70
     1
102
RTVSPropertyOp11
 70
     1
102
RTVSPropertyOp12
 70
     1
102
RTVSPropertyOp13
 70
     1
102
RTVSPropertyOp14
 70
     1
102
RTVSPropertyOp15
 70
     1
102
RTVSPropertyOp16
 70
     1
102
RTVSPropertyOp17
 70
     1
102
RTVSPropertyOp18
 70
     1
102
RTVSPropertyOp19
 70
     1
102
RTVSPropertyOp20
 70
     1
102
RTVSPropertyOp21
 70
     1
102
RTVSPropertyOp22
 70
     1
102
RTVSPropertyOp23
 70
     1
102
RTVSPropertyOp24
 70
     1
102
RTVSPropertyOp25
 70
     1
102
RTVSPropertyOp26
 70
     1
102
RTVSPropertyOp27
 70
     1
102
RTVSPropertyOp28
 70
     1
102
RTVSPropertyOp29
 70
     1
102
RTVSPropertyOp30
 70
     1
102
RTVSPropertyOp31
 70
     1
102
RTVSPropertyOp32
 70
     1
102
RTVSPropertyOp33
 70
     1
102
RTVSPropertyOp34
 70
     1
102
RTVSPropertyOp35
 70
     1
102
RTVSPropertyOp36
 70
     1
102
RTVSPropertyOp37
 70
     1
102
RTVSPropertyOp38
 70
     1
102
RTVSPropertyOp39
 70
     1
102
RTVSPropertyOp40
 70
     1
102
RTVSPropertyOp41
 70
     1
102
RTVSPropertyOp42
 70
     1
102
RTVSPropertyOp43
 70
     1
102
RTVSPropertyOp44
 70
     1
102
RTVSPropertyOp45
 70
     1
102
RTVSPropertyOp46
 70
     1
102
RTVSPropertyOp47
 70
     1
102
RTVSPropertyOp48
 70
     1
102
RTVSPropertyOp49
 70
     1
102
RTVSPropertyOp50
 70
     1
102
RTVSPropertyOp51
 70
     0
102
RTVSPropertyOp52
 70
     0
102
RTVSPropertyOp53
 70
     1
102
RTVSPropertyOp54
 70
     1
102
RTVSPropertyOp55
 70
     1
102
RTVSPropertyOp56
 70
     1
102
RTVSPropertyOp57
 70
     1
102
RTVSPost2010Prop28
280
     0
102
RTVSPost2010PropOp28
 70
     1
102
RTVSPost2010Prop29
280
     1
102
RTVSPost2010PropOp29
 70
     1
102
RTVSPost2010Prop30
280
     1
102
RTVSPost2010PropOp30
 70
     1
102
RTVSPost2010Prop31
280
     0
102
RTVSPost2010PropOp31
 70
     1
102
RTVSPost2010Prop32
280
     0
102
RTVSPost2010PropOp32
 70
     1
102
RTVSPost2010Prop33
280
     0
102
RTVSPost2010PropOp33
 70
     1
102
RTVSPost2010Prop34
280
     0
102
RTVSPost2010PropOp34
 70
     1
102
RTVSPost2010Prop35
280
     0
102
RTVSPost2010PropOp35
 70
     1
102
RTVSPost2010Prop36
280
     0
102
RTVSPost2010PropOp36
 70
     1
102
RTVSPost2010Prop37
 90
       50
102
RTVSPost2010PropOp37
 70
     1
102
RTVSPost2010Prop38
140
0.0
102
RTVSPost2010PropOp38
 70
     1
102
RTVSPost2010Prop39
140
1.0
102
RTVSPost2010PropOp39
 70
     1
102
RTVSPost2010Prop40
 90
        0
102
RTVSPost2010PropOp40
 70
     1
102
RTVSPost2010Prop41ColorIndex
 90
       18
102
RTVSPost2010Prop41ColorRGB
 90
        0
102
RTVSPost2010PropOp41
 70
     1
102
RTVSPost2010Prop42
 90
       50
102
RTVSPost2010PropOp42
 70
     1
102
RTVSPost2010Prop43
 90
        3
102
RTVSPost2010PropOp43
 70
     1
102
RTVSPost2010Prop44ColorIndex
 90
        5
102
RTVSPost2010Prop44ColorRGB
 90
      255
102
RTVSPost2010PropOp44
 70
     1
102
RTVSPost2010Prop45
280
     0
102
RTVSPost2010PropOp45
 70
     1
102
RTVSPost2010Prop46
 90
       50
102
RTVSPost2010PropOp46
 70
     1
102
RTVSPost2010Prop47
 90
       50
102
RTVSPost2010PropOp47
 70
     1
102
RTVSPost2010Prop48
 90
       50
102
RTVSPost2010PropOp48
 70
     1
102
RTVSPost2010Prop49
280
     0
102
RTVSPost2010PropOp49
 70
     1
102
RTVSPost2010Prop50
 90
       50
102
RTVSPost2010PropOp50
 70
     1
102
RTVSPost2010Prop51ColorIndex
 90
      256
102
RTVSPost2010Prop51ColorRGB
 90
-16777216
102
RTVSPost2010PropOp51
 70
     0
102
RTVSPost2010Prop52
140
1.0
102
RTVSPost2010PropOp52
 70
     0
102
RTVSPost2010Prop53
 90
        2
102
RTVSPost2010PropOp53
 70
     1
102
RTVSPost2010Prop54
  1
strokes_ogs.tif
102
RTVSPost2010PropOp54
 70
     1
102
RTVSPost2010Prop55
280
     0
102
RTVSPost2010PropOp55
 70
     1
102
RTVSPost2010Prop56
140
1.0
102
RTVSPost2010PropOp56
 70
     1
102
RTVSPost2010Prop57
140
1.0
102
RTVSPost2010PropOp57
 70
     1
  0
XRECORD
  5
4C0
102
{ACAD_REACTORS
330
4BF
102
}
330
4BF
100
AcDbXrecord
280
     1
102
RTVSPropertyOp0
 70
     1
102
RTVSPropertyOp1
 70
     1
102
RTVSPropertyOp2
 70
     1
102
RTVSPropertyOp3
 70
     1
102
RTVSPropertyOp4
 70
     1
102
RTVSPropertyOp5
 70
     1
102
RTVSPropertyOp6
 70
     1
102
RTVSPropertyOp7
 70
     1
102
RTVSPropertyOp8
 70
     1
102
RTVSPropertyOp9
 70
     1
102
RTVSPropertyOp10
 70
     1
102
RTVSPropertyOp11
 70
     1
102
RTVSPropertyOp12
 70
     1
102
RTVSPropertyOp13
 70
     1
102
RTVSPropertyOp14
 70
     1
102
RTVSPropertyOp15
 70
     1
102
RTVSPropertyOp16
 70
     1
102
RTVSPropertyOp17
 70
     1
102
RTVSPropertyOp18
 70
     1
102
RTVSPropertyOp19
 70
     1
102
RTVSPropertyOp20
 70
     1
102
RTVSPropertyOp21
 70
     1
102
RTVSPropertyOp22
 70
     1
102
RTVSPropertyOp23
 70
     1
102
RTVSPropertyOp24
 70
     1
102
RTVSPropertyOp25
 70
     1
102
RTVSPropertyOp26
 70
     1
102
RTVSPropertyOp27
 70
     1
102
RTVSPropertyOp28
 70
     1
102
RTVSPropertyOp29
 70
     1
102
RTVSPropertyOp30
 70
     1
102
RTVSPropertyOp31
 70
     1
102
RTVSPropertyOp32
 70
     1
102
RTVSPropertyOp33
 70
     1
102
RTVSPropertyOp34
 70
     1
102
RTVSPropertyOp35
 70
     1
102
RTVSPropertyOp36
 70
     1
102
RTVSPropertyOp37
 70
     1
102
RTVSPropertyOp38
 70
     1
102
RTVSPropertyOp39
 70
     1
102
RTVSPropertyOp40
 70
     1
102
RTVSPropertyOp41
 70
     1
102
RTVSPropertyOp42
 70
     1
102
RTVSPropertyOp43
 70
     1
102
RTVSPropertyOp44
 70
     1
102
RTVSPropertyOp45
 70
     1
102
RTVSPropertyOp46
 70
     1
102
RTVSPropertyOp47
 70
     1
102
RTVSPropertyOp48
 70
     1
102
RTVSPropertyOp49
 70
     1
102
RTVSPropertyOp50
 70
     1
102
RTVSPropertyOp51
 70
     0
102
RTVSPropertyOp52
 70
     0
102
RTVSPropertyOp53
 70
     1
102
RTVSPropertyOp54
 70
     1
102
RTVSPropertyOp55
 70
     1
102
RTVSPropertyOp56
 70
     1
102
RTVSPropertyOp57
 70
     1
102
RTVSPost2010Prop28
280
     0
102
RTVSPost2010PropOp28
 70
     1
102
RTVSPost2010Prop29
280
     1
102
RTVSPost2010PropOp29
 70
     1
102
RTVSPost2010Prop30
280
     1
102
RTVSPost2010PropOp30
 70
     1
102
RTVSPost2010Prop31
280
     0
102
RTVSPost2010PropOp31
 70
     1
102
RTVSPost2010Prop32
280
     0
102
RTVSPost2010PropOp32
 70
     1
102
RTVSPost2010Prop33
280
     0
102
RTVSPost2010PropOp33
 70
     1
102
RTVSPost2010Prop34
280
     0
102
RTVSPost2010PropOp34
 70
     1
102
RTVSPost2010Prop35
280
     0
102
RTVSPost2010PropOp35
 70
     1
102
RTVSPost2010Prop36
280
     0
102
RTVSPost2010PropOp36
 70
     1
102
RTVSPost2010Prop37
 90
       50
102
RTVSPost2010PropOp37
 70
     1
102
RTVSPost2010Prop38
140
0.0
102
RTVSPost2010PropOp38
 70
     1
102
RTVSPost2010Prop39
140
1.0
102
RTVSPost2010PropOp39
 70
     1
102
RTVSPost2010Prop40
 90
        0
102
RTVSPost2010PropOp40
 70
     1
102
RTVSPost2010Prop41ColorIndex
 90
       18
102
RTVSPost2010Prop41ColorRGB
 90
        0
102
RTVSPost2010PropOp41
 70
     1
102
RTVSPost2010Prop42
 90
       50
102
RTVSPost2010PropOp42
 70
     1
102
RTVSPost2010Prop43
 90
        3
102
RTVSPost2010PropOp43
 70
     1
102
RTVSPost2010Prop44ColorIndex
 90
        5
102
RTVSPost2010Prop44ColorRGB
 90
      255
102
RTVSPost2010PropOp44
 70
     1
102
RTVSPost2010Prop45
280
     0
102
RTVSPost2010PropOp45
 70
     1
102
RTVSPost2010Prop46
 90
       50
102
RTVSPost2010PropOp46
 70
     1
102
RTVSPost2010Prop47
 90
       50
102
RTVSPost2010PropOp47
 70
     1
102
RTVSPost2010Prop48
 90
       50
102
RTVSPost2010PropOp48
 70
     1
102
RTVSPost2010Prop49
280
     0
102
RTVSPost2010PropOp49
 70
     1
102
RTVSPost2010Prop50
 90
       50
102
RTVSPost2010PropOp50
 70
     1
102
RTVSPost2010Prop51ColorIndex
 90
      256
102
RTVSPost2010Prop51ColorRGB
 90
-16777216
102
RTVSPost2010PropOp51
 70
     0
102
RTVSPost2010Prop52
140
1.0
102
RTVSPost2010PropOp52
 70
     0
102
RTVSPost2010Prop53
 90
        2
102
RTVSPost2010PropOp53
 70
     1
102
RTVSPost2010Prop54
  1
strokes_ogs.tif
102
RTVSPost2010PropOp54
 70
     1
102
RTVSPost2010Prop55
280
     0
102
RTVSPost2010PropOp55
 70
     1
102
RTVSPost2010Prop56
140
1.0
102
RTVSPost2010PropOp56
 70
     1
102
RTVSPost2010Prop57
140
1.0
102
RTVSPost2010PropOp57
 70
     1
  0
XRECORD
  5
4D0
102
{ACAD_REACTORS
330
4CF
102
}
330
4CF
100
AcDbXrecord
280
     1
102
RTVSPropertyOp0
 70
     0
102
RTVSPropertyOp1
 70
     0
102
RTVSPropertyOp2
 70
     0
102
RTVSPropertyOp3
 70
     0
102
RTVSPropertyOp4
 70
     0
102
RTVSPropertyOp5
 70
     0
102
RTVSPropertyOp6
 70
     0
102
RTVSPropertyOp7
 70
     0
102
RTVSPropertyOp8
 70
     0
102
RTVSPropertyOp9
 70
     0
102
RTVSPropertyOp10
 70
     0
102
RTVSPropertyOp11
 70
     0
102
RTVSPropertyOp12
 70
     0
102
RTVSPropertyOp13
 70
     0
102
RTVSPropertyOp14
 70
     2
102
RTVSPropertyOp15
 70
     0
102
RTVSPropertyOp16
 70
     0
102
RTVSPropertyOp17
 70
     0
102
RTVSPropertyOp18
 70
     0
102
RTVSPropertyOp19
 70
     0
102
RTVSPropertyOp20
 70
     0
102
RTVSPropertyOp21
 70
     0
102
RTVSPropertyOp22
 70
     0
102
RTVSPropertyOp23
 70
     0
102
RTVSPropertyOp24
 70
     0
102
RTVSPropertyOp25
 70
     0
102
RTVSPropertyOp26
 70
     0
102
RTVSPropertyOp27
 70
     0
102
RTVSPropertyOp28
 70
     0
102
RTVSPropertyOp29
 70
     0
102
RTVSPropertyOp30
 70
     0
102
RTVSPropertyOp31
 70
     0
102
RTVSPropertyOp32
 70
     0
102
RTVSPropertyOp33
 70
     0
102
RTVSPropertyOp34
 70
     0
102
RTVSPropertyOp35
 70
     0
102
RTVSPropertyOp36
 70
     0
102
RTVSPropertyOp37
 70
     0
102
RTVSPropertyOp38
 70
     0
102
RTVSPropertyOp39
 70
     0
102
RTVSPropertyOp40
 70
     0
102
RTVSPropertyOp41
 70
     0
102
RTVSPropertyOp42
 70
     0
102
RTVSPropertyOp43
 70
     0
102
RTVSPropertyOp44
 70
     0
102
RTVSPropertyOp45
 70
     0
102
RTVSPropertyOp46
 70
     0
102
RTVSPropertyOp47
 70
     0
102
RTVSPropertyOp48
 70
     0
102
RTVSPropertyOp49
 70
     0
102
RTVSPropertyOp50
 70
     0
102
RTVSPropertyOp51
 70
     0
102
RTVSPropertyOp52
 70
     0
102
RTVSPropertyOp53
 70
     0
102
RTVSPropertyOp54
 70
     0
102
RTVSPropertyOp55
 70
     0
102
RTVSPropertyOp56
 70
     0
102
RTVSPropertyOp57
 70
     0
102
RTVSPost2010Prop28
280
     0
102
RTVSPost2010PropOp28
 70
     0
102
RTVSPost2010Prop29
280
     1
102
RTVSPost2010PropOp29
 70
     0
102
RTVSPost2010Prop30
280
     1
102
RTVSPost2010PropOp30
 70
     0
102
RTVSPost2010Prop31
280
     0
102
RTVSPost2010PropOp31
 70
     0
102
RTVSPost2010Prop32
280
     0
102
RTVSPost2010PropOp32
 70
     0
102
RTVSPost2010Prop33
280
     0
102
RTVSPost2010PropOp33
 70
     0
102
RTVSPost2010Prop34
280
     0
102
RTVSPost2010PropOp34
 70
     0
102
RTVSPost2010Prop35
280
     0
102
RTVSPost2010PropOp35
 70
     0
102
RTVSPost2010Prop36
280
     0
102
RTVSPost2010PropOp36
 70
     0
102
RTVSPost2010Prop37
 90
       50
102
RTVSPost2010PropOp37
 70
     0
102
RTVSPost2010Prop38
140
0.0
102
RTVSPost2010PropOp38
 70
     0
102
RTVSPost2010Prop39
140
1.0
102
RTVSPost2010PropOp39
 70
     0
102
RTVSPost2010Prop40
 90
        0
102
RTVSPost2010PropOp40
 70
     0
102
RTVSPost2010Prop41ColorIndex
 90
       18
102
RTVSPost2010Prop41ColorRGB
 90
        0
102
RTVSPost2010PropOp41
 70
     0
102
RTVSPost2010Prop42
 90
       50
102
RTVSPost2010PropOp42
 70
     0
102
RTVSPost2010Prop43
 90
        3
102
RTVSPost2010PropOp43
 70
     0
102
RTVSPost2010Prop44ColorIndex
 90
        5
102
RTVSPost2010Prop44ColorRGB
 90
      255
102
RTVSPost2010PropOp44
 70
     0
102
RTVSPost2010Prop45
280
     0
102
RTVSPost2010PropOp45
 70
     0
102
RTVSPost2010Prop46
 90
       50
102
RTVSPost2010PropOp46
 70
     0
102
RTVSPost2010Prop47
 90
       50
102
RTVSPost2010PropOp47
 70
     0
102
RTVSPost2010Prop48
 90
       50
102
RTVSPost2010PropOp48
 70
     0
102
RTVSPost2010Prop49
280
     0
102
RTVSPost2010PropOp49
 70
     0
102
RTVSPost2010Prop50
 90
       50
102
RTVSPost2010PropOp50
 70
     0
102
RTVSPost2010Prop51ColorIndex
 90
      256
102
RTVSPost2010Prop51ColorRGB
 90
-16777216
102
RTVSPost2010PropOp51
 70
     0
102
RTVSPost2010Prop52
140
1.0
102
RTVSPost2010PropOp52
 70
     0
102
RTVSPost2010Prop53
 90
        2
102
RTVSPost2010PropOp53
 70
     0
102
RTVSPost2010Prop54
  1
strokes_ogs.tif
102
RTVSPost2010PropOp54
 70
     0
102
RTVSPost2010Prop55
280
     0
102
RTVSPost2010PropOp55
 70
     0
102
RTVSPost2010Prop56
140
1.0
102
RTVSPost2010PropOp56
 70
     0
102
RTVSPost2010Prop57
140
1.0
102
RTVSPost2010PropOp57
 70
     0
  0
XRECORD
  5
4C8
102
{ACAD_REACTORS
330
4C7
102
}
330
4C7
100
AcDbXrecord
280
     1
102
RTVSPropertyOp0
 70
     1
102
RTVSPropertyOp1
 70
     1
102
RTVSPropertyOp2
 70
     1
102
RTVSPropertyOp3
 70
     1
102
RTVSPropertyOp4
 70
     1
102
RTVSPropertyOp5
 70
     1
102
RTVSPropertyOp6
 70
     1
102
RTVSPropertyOp7
 70
     1
102
RTVSPropertyOp8
 70
     1
102
RTVSPropertyOp9
 70
     1
102
RTVSPropertyOp10
 70
     1
102
RTVSPropertyOp11
 70
     1
102
RTVSPropertyOp12
 70
     1
102
RTVSPropertyOp13
 70
     1
102
RTVSPropertyOp14
 70
     1
102
RTVSPropertyOp15
 70
     1
102
RTVSPropertyOp16
 70
     1
102
RTVSPropertyOp17
 70
     1
102
RTVSPropertyOp18
 70
     1
102
RTVSPropertyOp19
 70
     1
102
RTVSPropertyOp20
 70
     1
102
RTVSPropertyOp21
 70
     1
102
RTVSPropertyOp22
 70
     1
102
RTVSPropertyOp23
 70
     1
102
RTVSPropertyOp24
 70
     1
102
RTVSPropertyOp25
 70
     1
102
RTVSPropertyOp26
 70
     1
102
RTVSPropertyOp27
 70
     1
102
RTVSPropertyOp28
 70
     1
102
RTVSPropertyOp29
 70
     1
102
RTVSPropertyOp30
 70
     1
102
RTVSPropertyOp31
 70
     1
102
RTVSPropertyOp32
 70
     1
102
RTVSPropertyOp33
 70
     1
102
RTVSPropertyOp34
 70
     1
102
RTVSPropertyOp35
 70
     1
102
RTVSPropertyOp36
 70
     1
102
RTVSPropertyOp37
 70
     1
102
RTVSPropertyOp38
 70
     1
102
RTVSPropertyOp39
 70
     1
102
RTVSPropertyOp40
 70
     1
102
RTVSPropertyOp41
 70
     1
102
RTVSPropertyOp42
 70
     1
102
RTVSPropertyOp43
 70
     1
102
RTVSPropertyOp44
 70
     1
102
RTVSPropertyOp45
 70
     1
102
RTVSPropertyOp46
 70
     1
102
RTVSPropertyOp47
 70
     1
102
RTVSPropertyOp48
 70
     1
102
RTVSPropertyOp49
 70
     1
102
RTVSPropertyOp50
 70
     1
102
RTVSPropertyOp51
 70
     0
102
RTVSPropertyOp52
 70
     0
102
RTVSPropertyOp53
 70
     1
102
RTVSPropertyOp54
 70
     1
102
RTVSPropertyOp55
 70
     1
102
RTVSPropertyOp56
 70
     1
102
RTVSPropertyOp57
 70
     1
102
RTVSPost2010Prop28
280
     0
102
RTVSPost2010PropOp28
 70
     1
102
RTVSPost2010Prop29
280
     1
102
RTVSPost2010PropOp29
 70
     1
102
RTVSPost2010Prop30
280
     1
102
RTVSPost2010PropOp30
 70
     1
102
RTVSPost2010Prop31
280
     0
102
RTVSPost2010PropOp31
 70
     1
102
RTVSPost2010Prop32
280
     0
102
RTVSPost2010PropOp32
 70
     1
102
RTVSPost2010Prop33
280
     0
102
RTVSPost2010PropOp33
 70
     1
102
RTVSPost2010Prop34
280
     0
102
RTVSPost2010PropOp34
 70
     1
102
RTVSPost2010Prop35
280
     0
102
RTVSPost2010PropOp35
 70
     1
102
RTVSPost2010Prop36
280
     0
102
RTVSPost2010PropOp36
 70
     1
102
RTVSPost2010Prop37
 90
       50
102
RTVSPost2010PropOp37
 70
     1
102
RTVSPost2010Prop38
140
0.0
102
RTVSPost2010PropOp38
 70
     1
102
RTVSPost2010Prop39
140
1.0
102
RTVSPost2010PropOp39
 70
     1
102
RTVSPost2010Prop40
 90
        0
102
RTVSPost2010PropOp40
 70
     1
102
RTVSPost2010Prop41ColorIndex
 90
       18
102
RTVSPost2010Prop41ColorRGB
 90
        0
102
RTVSPost2010PropOp41
 70
     1
102
RTVSPost2010Prop42
 90
       50
102
RTVSPost2010PropOp42
 70
     1
102
RTVSPost2010Prop43
 90
        3
102
RTVSPost2010PropOp43
 70
     1
102
RTVSPost2010Prop44ColorIndex
 90
        5
102
RTVSPost2010Prop44ColorRGB
 90
      255
102
RTVSPost2010PropOp44
 70
     1
102
RTVSPost2010Prop45
280
     0
102
RTVSPost2010PropOp45
 70
     1
102
RTVSPost2010Prop46
 90
       50
102
RTVSPost2010PropOp46
 70
     1
102
RTVSPost2010Prop47
 90
       50
102
RTVSPost2010PropOp47
 70
     1
102
RTVSPost2010Prop48
 90
       50
102
RTVSPost2010PropOp48
 70
     1
102
RTVSPost2010Prop49
280
     0
102
RTVSPost2010PropOp49
 70
     1
102
RTVSPost2010Prop50
 90
       50
102
RTVSPost2010PropOp50
 70
     1
102
RTVSPost2010Prop51ColorIndex
 90
      256
102
RTVSPost2010Prop51ColorRGB
 90
-16777216
102
RTVSPost2010PropOp51
 70
     0
102
RTVSPost2010Prop52
140
1.0
102
RTVSPost2010PropOp52
 70
     0
102
RTVSPost2010Prop53
 90
        2
102
RTVSPost2010PropOp53
 70
     1
102
RTVSPost2010Prop54
  1
strokes_ogs.tif
102
RTVSPost2010PropOp54
 70
     1
102
RTVSPost2010Prop55
280
     0
102
RTVSPost2010PropOp55
 70
     1
102
RTVSPost2010Prop56
140
1.0
102
RTVSPost2010PropOp56
 70
     1
102
RTVSPost2010Prop57
140
1.0
102
RTVSPost2010PropOp57
 70
     1
  0
XRECORD
  5
4AC
102
{ACAD_REACTORS
330
4AB
102
}
330
4AB
100
AcDbXrecord
280
     1
102
RTVSPropertyOp0
 70
     1
102
RTVSPropertyOp1
 70
     1
102
RTVSPropertyOp2
 70
     1
102
RTVSPropertyOp3
 70
     1
102
RTVSPropertyOp4
 70
     1
102
RTVSPropertyOp5
 70
     1
102
RTVSPropertyOp6
 70
     1
102
RTVSPropertyOp7
 70
     1
102
RTVSPropertyOp8
 70
     1
102
RTVSPropertyOp9
 70
     1
102
RTVSPropertyOp10
 70
     1
102
RTVSPropertyOp11
 70
     1
102
RTVSPropertyOp12
 70
     1
102
RTVSPropertyOp13
 70
     1
102
RTVSPropertyOp14
 70
     1
102
RTVSPropertyOp15
 70
     1
102
RTVSPropertyOp16
 70
     1
102
RTVSPropertyOp17
 70
     1
102
RTVSPropertyOp18
 70
     1
102
RTVSPropertyOp19
 70
     1
102
RTVSPropertyOp20
 70
     1
102
RTVSPropertyOp21
 70
     1
102
RTVSPropertyOp22
 70
     1
102
RTVSPropertyOp23
 70
     1
102
RTVSPropertyOp24
 70
     1
102
RTVSPropertyOp25
 70
     1
102
RTVSPropertyOp26
 70
     1
102
RTVSPropertyOp27
 70
     1
102
RTVSPropertyOp28
 70
     1
102
RTVSPropertyOp29
 70
     1
102
RTVSPropertyOp30
 70
     1
102
RTVSPropertyOp31
 70
     1
102
RTVSPropertyOp32
 70
     1
102
RTVSPropertyOp33
 70
     1
102
RTVSPropertyOp34
 70
     1
102
RTVSPropertyOp35
 70
     1
102
RTVSPropertyOp36
 70
     1
102
RTVSPropertyOp37
 70
     1
102
RTVSPropertyOp38
 70
     1
102
RTVSPropertyOp39
 70
     1
102
RTVSPropertyOp40
 70
     1
102
RTVSPropertyOp41
 70
     1
102
RTVSPropertyOp42
 70
     1
102
RTVSPropertyOp43
 70
     1
102
RTVSPropertyOp44
 70
     1
102
RTVSPropertyOp45
 70
     1
102
RTVSPropertyOp46
 70
     1
102
RTVSPropertyOp47
 70
     1
102
RTVSPropertyOp48
 70
     1
102
RTVSPropertyOp49
 70
     1
102
RTVSPropertyOp50
 70
     1
102
RTVSPropertyOp51
 70
     0
102
RTVSPropertyOp52
 70
     0
102
RTVSPropertyOp53
 70
     1
102
RTVSPropertyOp54
 70
     1
102
RTVSPropertyOp55
 70
     1
102
RTVSPropertyOp56
 70
     1
102
RTVSPropertyOp57
 70
     1
102
RTVSPost2010Prop28
280
     0
102
RTVSPost2010PropOp28
 70
     1
102
RTVSPost2010Prop29
280
     1
102
RTVSPost2010PropOp29
 70
     1
102
RTVSPost2010Prop30
280
     1
102
RTVSPost2010PropOp30
 70
     1
102
RTVSPost2010Prop31
280
     0
102
RTVSPost2010PropOp31
 70
     1
102
RTVSPost2010Prop32
280
     0
102
RTVSPost2010PropOp32
 70
     1
102
RTVSPost2010Prop33
280
     0
102
RTVSPost2010PropOp33
 70
     1
102
RTVSPost2010Prop34
280
     0
102
RTVSPost2010PropOp34
 70
     1
102
RTVSPost2010Prop35
280
     0
102
RTVSPost2010PropOp35
 70
     1
102
RTVSPost2010Prop36
280
     0
102
RTVSPost2010PropOp36
 70
     1
102
RTVSPost2010Prop37
 90
       50
102
RTVSPost2010PropOp37
 70
     1
102
RTVSPost2010Prop38
140
0.0
102
RTVSPost2010PropOp38
 70
     1
102
RTVSPost2010Prop39
140
1.0
102
RTVSPost2010PropOp39
 70
     1
102
RTVSPost2010Prop40
 90
        0
102
RTVSPost2010PropOp40
 70
     1
102
RTVSPost2010Prop41ColorIndex
 90
       18
102
RTVSPost2010Prop41ColorRGB
 90
        0
102
RTVSPost2010PropOp41
 70
     1
102
RTVSPost2010Prop42
 90
       50
102
RTVSPost2010PropOp42
 70
     1
102
RTVSPost2010Prop43
 90
        3
102
RTVSPost2010PropOp43
 70
     1
102
RTVSPost2010Prop44ColorIndex
 90
        5
102
RTVSPost2010Prop44ColorRGB
 90
      255
102
RTVSPost2010PropOp44
 70
     1
102
RTVSPost2010Prop45
280
     0
102
RTVSPost2010PropOp45
 70
     1
102
RTVSPost2010Prop46
 90
       50
102
RTVSPost2010PropOp46
 70
     1
102
RTVSPost2010Prop47
 90
       50
102
RTVSPost2010PropOp47
 70
     1
102
RTVSPost2010Prop48
 90
       50
102
RTVSPost2010PropOp48
 70
     1
102
RTVSPost2010Prop49
280
     0
102
RTVSPost2010PropOp49
 70
     1
102
RTVSPost2010Prop50
 90
       50
102
RTVSPost2010PropOp50
 70
     1
102
RTVSPost2010Prop51ColorIndex
 90
      256
102
RTVSPost2010Prop51ColorRGB
 90
-16777216
102
RTVSPost2010PropOp51
 70
     0
102
RTVSPost2010Prop52
140
1.0
102
RTVSPost2010PropOp52
 70
     0
102
RTVSPost2010Prop53
 90
        2
102
RTVSPost2010PropOp53
 70
     1
102
RTVSPost2010Prop54
  1
strokes_ogs.tif
102
RTVSPost2010PropOp54
 70
     1
102
RTVSPost2010Prop55
280
     0
102
RTVSPost2010PropOp55
 70
     1
102
RTVSPost2010Prop56
140
1.0
102
RTVSPost2010PropOp56
 70
     1
102
RTVSPost2010Prop57
140
1.0
102
RTVSPost2010PropOp57
 70
     1
  0
XRECORD
  5
4AE
102
{ACAD_REACTORS
330
4AD
102
}
330
4AD
100
AcDbXrecord
280
     1
102
RTVSPropertyOp0
 70
     1
102
RTVSPropertyOp1
 70
     1
102
RTVSPropertyOp2
 70
     1
102
RTVSPropertyOp3
 70
     1
102
RTVSPropertyOp4
 70
     1
102
RTVSPropertyOp5
 70
     1
102
RTVSPropertyOp6
 70
     1
102
RTVSPropertyOp7
 70
     1
102
RTVSPropertyOp8
 70
     1
102
RTVSPropertyOp9
 70
     1
102
RTVSPropertyOp10
 70
     1
102
RTVSPropertyOp11
 70
     1
102
RTVSPropertyOp12
 70
     1
102
RTVSPropertyOp13
 70
     1
102
RTVSPropertyOp14
 70
     1
102
RTVSPropertyOp15
 70
     1
102
RTVSPropertyOp16
 70
     1
102
RTVSPropertyOp17
 70
     1
102
RTVSPropertyOp18
 70
     1
102
RTVSPropertyOp19
 70
     1
102
RTVSPropertyOp20
 70
     1
102
RTVSPropertyOp21
 70
     1
102
RTVSPropertyOp22
 70
     1
102
RTVSPropertyOp23
 70
     1
102
RTVSPropertyOp24
 70
     1
102
RTVSPropertyOp25
 70
     1
102
RTVSPropertyOp26
 70
     1
102
RTVSPropertyOp27
 70
     1
102
RTVSPropertyOp28
 70
     1
102
RTVSPropertyOp29
 70
     1
102
RTVSPropertyOp30
 70
     1
102
RTVSPropertyOp31
 70
     1
102
RTVSPropertyOp32
 70
     1
102
RTVSPropertyOp33
 70
     1
102
RTVSPropertyOp34
 70
     1
102
RTVSPropertyOp35
 70
     1
102
RTVSPropertyOp36
 70
     1
102
RTVSPropertyOp37
 70
     1
102
RTVSPropertyOp38
 70
     1
102
RTVSPropertyOp39
 70
     1
102
RTVSPropertyOp40
 70
     1
102
RTVSPropertyOp41
 70
     1
102
RTVSPropertyOp42
 70
     1
102
RTVSPropertyOp43
 70
     1
102
RTVSPropertyOp44
 70
     1
102
RTVSPropertyOp45
 70
     1
102
RTVSPropertyOp46
 70
     1
102
RTVSPropertyOp47
 70
     1
102
RTVSPropertyOp48
 70
     1
102
RTVSPropertyOp49
 70
     1
102
RTVSPropertyOp50
 70
     1
102
RTVSPropertyOp51
 70
     0
102
RTVSPropertyOp52
 70
     0
102
RTVSPropertyOp53
 70
     1
102
RTVSPropertyOp54
 70
     1
102
RTVSPropertyOp55
 70
     1
102
RTVSPropertyOp56
 70
     1
102
RTVSPropertyOp57
 70
     1
102
RTVSPost2010Prop28
280
     0
102
RTVSPost2010PropOp28
 70
     1
102
RTVSPost2010Prop29
280
     1
102
RTVSPost2010PropOp29
 70
     1
102
RTVSPost2010Prop30
280
     1
102
RTVSPost2010PropOp30
 70
     1
102
RTVSPost2010Prop31
280
     0
102
RTVSPost2010PropOp31
 70
     1
102
RTVSPost2010Prop32
280
     0
102
RTVSPost2010PropOp32
 70
     1
102
RTVSPost2010Prop33
280
     0
102
RTVSPost2010PropOp33
 70
     1
102
RTVSPost2010Prop34
280
     0
102
RTVSPost2010PropOp34
 70
     1
102
RTVSPost2010Prop35
280
     0
102
RTVSPost2010PropOp35
 70
     1
102
RTVSPost2010Prop36
280
     0
102
RTVSPost2010PropOp36
 70
     1
102
RTVSPost2010Prop37
 90
       50
102
RTVSPost2010PropOp37
 70
     1
102
RTVSPost2010Prop38
140
0.0
102
RTVSPost2010PropOp38
 70
     1
102
RTVSPost2010Prop39
140
1.0
102
RTVSPost2010PropOp39
 70
     1
102
RTVSPost2010Prop40
 90
        0
102
RTVSPost2010PropOp40
 70
     1
102
RTVSPost2010Prop41ColorIndex
 90
       18
102
RTVSPost2010Prop41ColorRGB
 90
        0
102
RTVSPost2010PropOp41
 70
     1
102
RTVSPost2010Prop42
 90
       50
102
RTVSPost2010PropOp42
 70
     1
102
RTVSPost2010Prop43
 90
        3
102
RTVSPost2010PropOp43
 70
     1
102
RTVSPost2010Prop44ColorIndex
 90
        5
102
RTVSPost2010Prop44ColorRGB
 90
      255
102
RTVSPost2010PropOp44
 70
     1
102
RTVSPost2010Prop45
280
     0
102
RTVSPost2010PropOp45
 70
     1
102
RTVSPost2010Prop46
 90
       50
102
RTVSPost2010PropOp46
 70
     1
102
RTVSPost2010Prop47
 90
       50
102
RTVSPost2010PropOp47
 70
     1
102
RTVSPost2010Prop48
 90
       50
102
RTVSPost2010PropOp48
 70
     1
102
RTVSPost2010Prop49
280
     0
102
RTVSPost2010PropOp49
 70
     1
102
RTVSPost2010Prop50
 90
       50
102
RTVSPost2010PropOp50
 70
     1
102
RTVSPost2010Prop51ColorIndex
 90
      256
102
RTVSPost2010Prop51ColorRGB
 90
-16777216
102
RTVSPost2010PropOp51
 70
     0
102
RTVSPost2010Prop52
140
1.0
102
RTVSPost2010PropOp52
 70
     0
102
RTVSPost2010Prop53
 90
        2
102
RTVSPost2010PropOp53
 70
     1
102
RTVSPost2010Prop54
  1
strokes_ogs.tif
102
RTVSPost2010PropOp54
 70
     1
102
RTVSPost2010Prop55
280
     0
102
RTVSPost2010PropOp55
 70
     1
102
RTVSPost2010Prop56
140
1.0
102
RTVSPost2010PropOp56
 70
     1
102
RTVSPost2010Prop57
140
1.0
102
RTVSPost2010PropOp57
 70
     1
  0
XRECORD
  5
4B0
102
{ACAD_REACTORS
330
4AF
102
}
330
4AF
100
AcDbXrecord
280
     1
102
RTVSPropertyOp0
 70
     1
102
RTVSPropertyOp1
 70
     1
102
RTVSPropertyOp2
 70
     1
102
RTVSPropertyOp3
 70
     1
102
RTVSPropertyOp4
 70
     1
102
RTVSPropertyOp5
 70
     1
102
RTVSPropertyOp6
 70
     1
102
RTVSPropertyOp7
 70
     1
102
RTVSPropertyOp8
 70
     1
102
RTVSPropertyOp9
 70
     1
102
RTVSPropertyOp10
 70
     1
102
RTVSPropertyOp11
 70
     1
102
RTVSPropertyOp12
 70
     1
102
RTVSPropertyOp13
 70
     1
102
RTVSPropertyOp14
 70
     1
102
RTVSPropertyOp15
 70
     1
102
RTVSPropertyOp16
 70
     1
102
RTVSPropertyOp17
 70
     1
102
RTVSPropertyOp18
 70
     1
102
RTVSPropertyOp19
 70
     1
102
RTVSPropertyOp20
 70
     1
102
RTVSPropertyOp21
 70
     1
102
RTVSPropertyOp22
 70
     1
102
RTVSPropertyOp23
 70
     1
102
RTVSPropertyOp24
 70
     1
102
RTVSPropertyOp25
 70
     1
102
RTVSPropertyOp26
 70
     1
102
RTVSPropertyOp27
 70
     1
102
RTVSPropertyOp28
 70
     1
102
RTVSPropertyOp29
 70
     1
102
RTVSPropertyOp30
 70
     1
102
RTVSPropertyOp31
 70
     1
102
RTVSPropertyOp32
 70
     1
102
RTVSPropertyOp33
 70
     1
102
RTVSPropertyOp34
 70
     1
102
RTVSPropertyOp35
 70
     1
102
RTVSPropertyOp36
 70
     1
102
RTVSPropertyOp37
 70
     1
102
RTVSPropertyOp38
 70
     1
102
RTVSPropertyOp39
 70
     1
102
RTVSPropertyOp40
 70
     1
102
RTVSPropertyOp41
 70
     1
102
RTVSPropertyOp42
 70
     1
102
RTVSPropertyOp43
 70
     1
102
RTVSPropertyOp44
 70
     1
102
RTVSPropertyOp45
 70
     1
102
RTVSPropertyOp46
 70
     1
102
RTVSPropertyOp47
 70
     1
102
RTVSPropertyOp48
 70
     1
102
RTVSPropertyOp49
 70
     1
102
RTVSPropertyOp50
 70
     1
102
RTVSPropertyOp51
 70
     0
102
RTVSPropertyOp52
 70
     0
102
RTVSPropertyOp53
 70
     1
102
RTVSPropertyOp54
 70
     1
102
RTVSPropertyOp55
 70
     1
102
RTVSPropertyOp56
 70
     1
102
RTVSPropertyOp57
 70
     1
102
RTVSPost2010Prop28
280
     0
102
RTVSPost2010PropOp28
 70
     1
102
RTVSPost2010Prop29
280
     1
102
RTVSPost2010PropOp29
 70
     1
102
RTVSPost2010Prop30
280
     1
102
RTVSPost2010PropOp30
 70
     1
102
RTVSPost2010Prop31
280
     0
102
RTVSPost2010PropOp31
 70
     1
102
RTVSPost2010Prop32
280
     0
102
RTVSPost2010PropOp32
 70
     1
102
RTVSPost2010Prop33
280
     0
102
RTVSPost2010PropOp33
 70
     1
102
RTVSPost2010Prop34
280
     0
102
RTVSPost2010PropOp34
 70
     1
102
RTVSPost2010Prop35
280
     0
102
RTVSPost2010PropOp35
 70
     1
102
RTVSPost2010Prop36
280
     0
102
RTVSPost2010PropOp36
 70
     1
102
RTVSPost2010Prop37
 90
       50
102
RTVSPost2010PropOp37
 70
     1
102
RTVSPost2010Prop38
140
0.0
102
RTVSPost2010PropOp38
 70
     1
102
RTVSPost2010Prop39
140
1.0
102
RTVSPost2010PropOp39
 70
     1
102
RTVSPost2010Prop40
 90
        0
102
RTVSPost2010PropOp40
 70
     1
102
RTVSPost2010Prop41ColorIndex
 90
       18
102
RTVSPost2010Prop41ColorRGB
 90
        0
102
RTVSPost2010PropOp41
 70
     1
102
RTVSPost2010Prop42
 90
       50
102
RTVSPost2010PropOp42
 70
     1
102
RTVSPost2010Prop43
 90
        3
102
RTVSPost2010PropOp43
 70
     1
102
RTVSPost2010Prop44ColorIndex
 90
        5
102
RTVSPost2010Prop44ColorRGB
 90
      255
102
RTVSPost2010PropOp44
 70
     1
102
RTVSPost2010Prop45
280
     0
102
RTVSPost2010PropOp45
 70
     1
102
RTVSPost2010Prop46
 90
       50
102
RTVSPost2010PropOp46
 70
     1
102
RTVSPost2010Prop47
 90
       50
102
RTVSPost2010PropOp47
 70
     1
102
RTVSPost2010Prop48
 90
       50
102
RTVSPost2010PropOp48
 70
     1
102
RTVSPost2010Prop49
280
     0
102
RTVSPost2010PropOp49
 70
     1
102
RTVSPost2010Prop50
 90
       50
102
RTVSPost2010PropOp50
 70
     1
102
RTVSPost2010Prop51ColorIndex
 90
      256
102
RTVSPost2010Prop51ColorRGB
 90
-16777216
102
RTVSPost2010PropOp51
 70
     0
102
RTVSPost2010Prop52
140
1.0
102
RTVSPost2010PropOp52
 70
     0
102
RTVSPost2010Prop53
 90
        2
102
RTVSPost2010PropOp53
 70
     1
102
RTVSPost2010Prop54
  1
strokes_ogs.tif
102
RTVSPost2010PropOp54
 70
     1
102
RTVSPost2010Prop55
280
     0
102
RTVSPost2010PropOp55
 70
     1
102
RTVSPost2010Prop56
140
1.0
102
RTVSPost2010PropOp56
 70
     1
102
RTVSPost2010Prop57
140
1.0
102
RTVSPost2010PropOp57
 70
     1
  0
XRECORD
  5
4B2
102
{ACAD_REACTORS
330
4B1
102
}
330
4B1
100
AcDbXrecord
280
     1
102
RTVSPropertyOp0
 70
     1
102
RTVSPropertyOp1
 70
     1
102
RTVSPropertyOp2
 70
     1
102
RTVSPropertyOp3
 70
     1
102
RTVSPropertyOp4
 70
     1
102
RTVSPropertyOp5
 70
     1
102
RTVSPropertyOp6
 70
     1
102
RTVSPropertyOp7
 70
     1
102
RTVSPropertyOp8
 70
     1
102
RTVSPropertyOp9
 70
     1
102
RTVSPropertyOp10
 70
     1
102
RTVSPropertyOp11
 70
     1
102
RTVSPropertyOp12
 70
     1
102
RTVSPropertyOp13
 70
     1
102
RTVSPropertyOp14
 70
     1
102
RTVSPropertyOp15
 70
     1
102
RTVSPropertyOp16
 70
     1
102
RTVSPropertyOp17
 70
     1
102
RTVSPropertyOp18
 70
     1
102
RTVSPropertyOp19
 70
     1
102
RTVSPropertyOp20
 70
     1
102
RTVSPropertyOp21
 70
     1
102
RTVSPropertyOp22
 70
     1
102
RTVSPropertyOp23
 70
     1
102
RTVSPropertyOp24
 70
     1
102
RTVSPropertyOp25
 70
     1
102
RTVSPropertyOp26
 70
     1
102
RTVSPropertyOp27
 70
     1
102
RTVSPropertyOp28
 70
     1
102
RTVSPropertyOp29
 70
     1
102
RTVSPropertyOp30
 70
     1
102
RTVSPropertyOp31
 70
     1
102
RTVSPropertyOp32
 70
     1
102
RTVSPropertyOp33
 70
     1
102
RTVSPropertyOp34
 70
     1
102
RTVSPropertyOp35
 70
     1
102
RTVSPropertyOp36
 70
     1
102
RTVSPropertyOp37
 70
     1
102
RTVSPropertyOp38
 70
     1
102
RTVSPropertyOp39
 70
     1
102
RTVSPropertyOp40
 70
     1
102
RTVSPropertyOp41
 70
     1
102
RTVSPropertyOp42
 70
     1
102
RTVSPropertyOp43
 70
     1
102
RTVSPropertyOp44
 70
     1
102
RTVSPropertyOp45
 70
     1
102
RTVSPropertyOp46
 70
     1
102
RTVSPropertyOp47
 70
     1
102
RTVSPropertyOp48
 70
     1
102
RTVSPropertyOp49
 70
     1
102
RTVSPropertyOp50
 70
     1
102
RTVSPropertyOp51
 70
     0
102
RTVSPropertyOp52
 70
     0
102
RTVSPropertyOp53
 70
     1
102
RTVSPropertyOp54
 70
     1
102
RTVSPropertyOp55
 70
     1
102
RTVSPropertyOp56
 70
     1
102
RTVSPropertyOp57
 70
     1
102
RTVSPost2010Prop28
280
     0
102
RTVSPost2010PropOp28
 70
     1
102
RTVSPost2010Prop29
280
     1
102
RTVSPost2010PropOp29
 70
     1
102
RTVSPost2010Prop30
280
     1
102
RTVSPost2010PropOp30
 70
     1
102
RTVSPost2010Prop31
280
     0
102
RTVSPost2010PropOp31
 70
     1
102
RTVSPost2010Prop32
280
     0
102
RTVSPost2010PropOp32
 70
     1
102
RTVSPost2010Prop33
280
     0
102
RTVSPost2010PropOp33
 70
     1
102
RTVSPost2010Prop34
280
     0
102
RTVSPost2010PropOp34
 70
     1
102
RTVSPost2010Prop35
280
     0
102
RTVSPost2010PropOp35
 70
     1
102
RTVSPost2010Prop36
280
     0
102
RTVSPost2010PropOp36
 70
     1
102
RTVSPost2010Prop37
 90
       50
102
RTVSPost2010PropOp37
 70
     1
102
RTVSPost2010Prop38
140
0.0
102
RTVSPost2010PropOp38
 70
     1
102
RTVSPost2010Prop39
140
1.0
102
RTVSPost2010PropOp39
 70
     1
102
RTVSPost2010Prop40
 90
        0
102
RTVSPost2010PropOp40
 70
     1
102
RTVSPost2010Prop41ColorIndex
 90
       18
102
RTVSPost2010Prop41ColorRGB
 90
        0
102
RTVSPost2010PropOp41
 70
     1
102
RTVSPost2010Prop42
 90
       50
102
RTVSPost2010PropOp42
 70
     1
102
RTVSPost2010Prop43
 90
        3
102
RTVSPost2010PropOp43
 70
     1
102
RTVSPost2010Prop44ColorIndex
 90
        5
102
RTVSPost2010Prop44ColorRGB
 90
      255
102
RTVSPost2010PropOp44
 70
     1
102
RTVSPost2010Prop45
280
     0
102
RTVSPost2010PropOp45
 70
     1
102
RTVSPost2010Prop46
 90
       50
102
RTVSPost2010PropOp46
 70
     1
102
RTVSPost2010Prop47
 90
       50
102
RTVSPost2010PropOp47
 70
     1
102
RTVSPost2010Prop48
 90
       50
102
RTVSPost2010PropOp48
 70
     1
102
RTVSPost2010Prop49
280
     0
102
RTVSPost2010PropOp49
 70
     1
102
RTVSPost2010Prop50
 90
       50
102
RTVSPost2010PropOp50
 70
     1
102
RTVSPost2010Prop51ColorIndex
 90
      256
102
RTVSPost2010Prop51ColorRGB
 90
-16777216
102
RTVSPost2010PropOp51
 70
     0
102
RTVSPost2010Prop52
140
1.0
102
RTVSPost2010PropOp52
 70
     0
102
RTVSPost2010Prop53
 90
        2
102
RTVSPost2010PropOp53
 70
     1
102
RTVSPost2010Prop54
  1
strokes_ogs.tif
102
RTVSPost2010PropOp54
 70
     1
102
RTVSPost2010Prop55
280
     0
102
RTVSPost2010PropOp55
 70
     1
102
RTVSPost2010Prop56
140
1.0
102
RTVSPost2010PropOp56
 70
     1
102
RTVSPost2010Prop57
140
1.0
102
RTVSPost2010PropOp57
 70
     1
  0
XRECORD
  5
4B8
102
{ACAD_REACTORS
330
4B7
102
}
330
4B7
100
AcDbXrecord
280
     1
102
RTVSPropertyOp0
 70
     1
102
RTVSPropertyOp1
 70
     1
102
RTVSPropertyOp2
 70
     1
102
RTVSPropertyOp3
 70
     1
102
RTVSPropertyOp4
 70
     1
102
RTVSPropertyOp5
 70
     1
102
RTVSPropertyOp6
 70
     1
102
RTVSPropertyOp7
 70
     1
102
RTVSPropertyOp8
 70
     1
102
RTVSPropertyOp9
 70
     1
102
RTVSPropertyOp10
 70
     1
102
RTVSPropertyOp11
 70
     1
102
RTVSPropertyOp12
 70
     1
102
RTVSPropertyOp13
 70
     1
102
RTVSPropertyOp14
 70
     1
102
RTVSPropertyOp15
 70
     1
102
RTVSPropertyOp16
 70
     1
102
RTVSPropertyOp17
 70
     1
102
RTVSPropertyOp18
 70
     1
102
RTVSPropertyOp19
 70
     1
102
RTVSPropertyOp20
 70
     1
102
RTVSPropertyOp21
 70
     1
102
RTVSPropertyOp22
 70
     1
102
RTVSPropertyOp23
 70
     1
102
RTVSPropertyOp24
 70
     1
102
RTVSPropertyOp25
 70
     1
102
RTVSPropertyOp26
 70
     1
102
RTVSPropertyOp27
 70
     1
102
RTVSPropertyOp28
 70
     1
102
RTVSPropertyOp29
 70
     1
102
RTVSPropertyOp30
 70
     1
102
RTVSPropertyOp31
 70
     1
102
RTVSPropertyOp32
 70
     1
102
RTVSPropertyOp33
 70
     1
102
RTVSPropertyOp34
 70
     1
102
RTVSPropertyOp35
 70
     1
102
RTVSPropertyOp36
 70
     1
102
RTVSPropertyOp37
 70
     1
102
RTVSPropertyOp38
 70
     1
102
RTVSPropertyOp39
 70
     1
102
RTVSPropertyOp40
 70
     1
102
RTVSPropertyOp41
 70
     1
102
RTVSPropertyOp42
 70
     1
102
RTVSPropertyOp43
 70
     1
102
RTVSPropertyOp44
 70
     1
102
RTVSPropertyOp45
 70
     1
102
RTVSPropertyOp46
 70
     1
102
RTVSPropertyOp47
 70
     1
102
RTVSPropertyOp48
 70
     1
102
RTVSPropertyOp49
 70
     1
102
RTVSPropertyOp50
 70
     1
102
RTVSPropertyOp51
 70
     0
102
RTVSPropertyOp52
 70
     0
102
RTVSPropertyOp53
 70
     1
102
RTVSPropertyOp54
 70
     1
102
RTVSPropertyOp55
 70
     1
102
RTVSPropertyOp56
 70
     1
102
RTVSPropertyOp57
 70
     1
102
RTVSPost2010Prop28
280
     0
102
RTVSPost2010PropOp28
 70
     1
102
RTVSPost2010Prop29
280
     1
102
RTVSPost2010PropOp29
 70
     1
102
RTVSPost2010Prop30
280
     1
102
RTVSPost2010PropOp30
 70
     1
102
RTVSPost2010Prop31
280
     0
102
RTVSPost2010PropOp31
 70
     1
102
RTVSPost2010Prop32
280
     0
102
RTVSPost2010PropOp32
 70
     1
102
RTVSPost2010Prop33
280
     0
102
RTVSPost2010PropOp33
 70
     1
102
RTVSPost2010Prop34
280
     0
102
RTVSPost2010PropOp34
 70
     1
102
RTVSPost2010Prop35
280
     0
102
RTVSPost2010PropOp35
 70
     1
102
RTVSPost2010Prop36
280
     0
102
RTVSPost2010PropOp36
 70
     1
102
RTVSPost2010Prop37
 90
       50
102
RTVSPost2010PropOp37
 70
     1
102
RTVSPost2010Prop38
140
0.0
102
RTVSPost2010PropOp38
 70
     1
102
RTVSPost2010Prop39
140
1.0
102
RTVSPost2010PropOp39
 70
     1
102
RTVSPost2010Prop40
 90
        0
102
RTVSPost2010PropOp40
 70
     1
102
RTVSPost2010Prop41ColorIndex
 90
       18
102
RTVSPost2010Prop41ColorRGB
 90
        0
102
RTVSPost2010PropOp41
 70
     1
102
RTVSPost2010Prop42
 90
       50
102
RTVSPost2010PropOp42
 70
     1
102
RTVSPost2010Prop43
 90
        3
102
RTVSPost2010PropOp43
 70
     1
102
RTVSPost2010Prop44ColorIndex
 90
        5
102
RTVSPost2010Prop44ColorRGB
 90
      255
102
RTVSPost2010PropOp44
 70
     1
102
RTVSPost2010Prop45
280
     0
102
RTVSPost2010PropOp45
 70
     1
102
RTVSPost2010Prop46
 90
       50
102
RTVSPost2010PropOp46
 70
     1
102
RTVSPost2010Prop47
 90
       50
102
RTVSPost2010PropOp47
 70
     1
102
RTVSPost2010Prop48
 90
       50
102
RTVSPost2010PropOp48
 70
     1
102
RTVSPost2010Prop49
280
     0
102
RTVSPost2010PropOp49
 70
     1
102
RTVSPost2010Prop50
 90
       50
102
RTVSPost2010PropOp50
 70
     1
102
RTVSPost2010Prop51ColorIndex
 90
      256
102
RTVSPost2010Prop51ColorRGB
 90
-16777216
102
RTVSPost2010PropOp51
 70
     0
102
RTVSPost2010Prop52
140
1.0
102
RTVSPost2010PropOp52
 70
     0
102
RTVSPost2010Prop53
 90
        2
102
RTVSPost2010PropOp53
 70
     1
102
RTVSPost2010Prop54
  1
strokes_ogs.tif
102
RTVSPost2010PropOp54
 70
     1
102
RTVSPost2010Prop55
280
     0
102
RTVSPost2010PropOp55
 70
     1
102
RTVSPost2010Prop56
140
1.0
102
RTVSPost2010PropOp56
 70
     1
102
RTVSPost2010Prop57
140
1.0
102
RTVSPost2010PropOp57
 70
     1
  0
XRECORD
  5
4CC
102
{ACAD_REACTORS
330
4CB
102
}
330
4CB
100
AcDbXrecord
280
     1
102
RTVSPropertyOp0
 70
     0
102
RTVSPropertyOp1
 70
     0
102
RTVSPropertyOp2
 70
     0
102
RTVSPropertyOp3
 70
     0
102
RTVSPropertyOp4
 70
     0
102
RTVSPropertyOp5
 70
     0
102
RTVSPropertyOp6
 70
     0
102
RTVSPropertyOp7
 70
     0
102
RTVSPropertyOp8
 70
     0
102
RTVSPropertyOp9
 70
     0
102
RTVSPropertyOp10
 70
     0
102
RTVSPropertyOp11
 70
     0
102
RTVSPropertyOp12
 70
     0
102
RTVSPropertyOp13
 70
     0
102
RTVSPropertyOp14
 70
     2
102
RTVSPropertyOp15
 70
     0
102
RTVSPropertyOp16
 70
     0
102
RTVSPropertyOp17
 70
     0
102
RTVSPropertyOp18
 70
     0
102
RTVSPropertyOp19
 70
     0
102
RTVSPropertyOp20
 70
     0
102
RTVSPropertyOp21
 70
     0
102
RTVSPropertyOp22
 70
     0
102
RTVSPropertyOp23
 70
     0
102
RTVSPropertyOp24
 70
     0
102
RTVSPropertyOp25
 70
     0
102
RTVSPropertyOp26
 70
     0
102
RTVSPropertyOp27
 70
     0
102
RTVSPropertyOp28
 70
     0
102
RTVSPropertyOp29
 70
     0
102
RTVSPropertyOp30
 70
     0
102
RTVSPropertyOp31
 70
     0
102
RTVSPropertyOp32
 70
     0
102
RTVSPropertyOp33
 70
     0
102
RTVSPropertyOp34
 70
     0
102
RTVSPropertyOp35
 70
     0
102
RTVSPropertyOp36
 70
     0
102
RTVSPropertyOp37
 70
     0
102
RTVSPropertyOp38
 70
     0
102
RTVSPropertyOp39
 70
     0
102
RTVSPropertyOp40
 70
     0
102
RTVSPropertyOp41
 70
     0
102
RTVSPropertyOp42
 70
     0
102
RTVSPropertyOp43
 70
     0
102
RTVSPropertyOp44
 70
     0
102
RTVSPropertyOp45
 70
     0
102
RTVSPropertyOp46
 70
     0
102
RTVSPropertyOp47
 70
     0
102
RTVSPropertyOp48
 70
     0
102
RTVSPropertyOp49
 70
     0
102
RTVSPropertyOp50
 70
     0
102
RTVSPropertyOp51
 70
     0
102
RTVSPropertyOp52
 70
     0
102
RTVSPropertyOp53
 70
     0
102
RTVSPropertyOp54
 70
     0
102
RTVSPropertyOp55
 70
     0
102
RTVSPropertyOp56
 70
     0
102
RTVSPropertyOp57
 70
     0
102
RTVSPost2010Prop28
280
     0
102
RTVSPost2010PropOp28
 70
     0
102
RTVSPost2010Prop29
280
     1
102
RTVSPost2010PropOp29
 70
     0
102
RTVSPost2010Prop30
280
     1
102
RTVSPost2010PropOp30
 70
     0
102
RTVSPost2010Prop31
280
     0
102
RTVSPost2010PropOp31
 70
     0
102
RTVSPost2010Prop32
280
     0
102
RTVSPost2010PropOp32
 70
     0
102
RTVSPost2010Prop33
280
     0
102
RTVSPost2010PropOp33
 70
     0
102
RTVSPost2010Prop34
280
     0
102
RTVSPost2010PropOp34
 70
     0
102
RTVSPost2010Prop35
280
     0
102
RTVSPost2010PropOp35
 70
     0
102
RTVSPost2010Prop36
280
     0
102
RTVSPost2010PropOp36
 70
     0
102
RTVSPost2010Prop37
 90
       50
102
RTVSPost2010PropOp37
 70
     0
102
RTVSPost2010Prop38
140
0.0
102
RTVSPost2010PropOp38
 70
     0
102
RTVSPost2010Prop39
140
1.0
102
RTVSPost2010PropOp39
 70
     0
102
RTVSPost2010Prop40
 90
        0
102
RTVSPost2010PropOp40
 70
     0
102
RTVSPost2010Prop41ColorIndex
 90
       18
102
RTVSPost2010Prop41ColorRGB
 90
        0
102
RTVSPost2010PropOp41
 70
     0
102
RTVSPost2010Prop42
 90
       50
102
RTVSPost2010PropOp42
 70
     0
102
RTVSPost2010Prop43
 90
        3
102
RTVSPost2010PropOp43
 70
     0
102
RTVSPost2010Prop44ColorIndex
 90
        5
102
RTVSPost2010Prop44ColorRGB
 90
      255
102
RTVSPost2010PropOp44
 70
     0
102
RTVSPost2010Prop45
280
     0
102
RTVSPost2010PropOp45
 70
     0
102
RTVSPost2010Prop46
 90
       50
102
RTVSPost2010PropOp46
 70
     0
102
RTVSPost2010Prop47
 90
       50
102
RTVSPost2010PropOp47
 70
     0
102
RTVSPost2010Prop48
 90
       50
102
RTVSPost2010PropOp48
 70
     0
102
RTVSPost2010Prop49
280
     0
102
RTVSPost2010PropOp49
 70
     0
102
RTVSPost2010Prop50
 90
       50
102
RTVSPost2010PropOp50
 70
     0
102
RTVSPost2010Prop51ColorIndex
 90
      256
102
RTVSPost2010Prop51ColorRGB
 90
-16777216
102
RTVSPost2010PropOp51
 70
     0
102
RTVSPost2010Prop52
140
1.0
102
RTVSPost2010PropOp52
 70
     0
102
RTVSPost2010Prop53
 90
        2
102
RTVSPost2010PropOp53
 70
     0
102
RTVSPost2010Prop54
  1
strokes_ogs.tif
102
RTVSPost2010PropOp54
 70
     0
102
RTVSPost2010Prop55
280
     0
102
RTVSPost2010PropOp55
 70
     0
102
RTVSPost2010Prop56
140
1.0
102
RTVSPost2010PropOp56
 70
     0
102
RTVSPost2010Prop57
140
1.0
102
RTVSPost2010PropOp57
 70
     0
  0
XRECORD
  5
4C6
102
{ACAD_REACTORS
330
4C5
102
}
330
4C5
100
AcDbXrecord
280
     1
102
RTVSPropertyOp0
 70
     1
102
RTVSPropertyOp1
 70
     1
102
RTVSPropertyOp2
 70
     1
102
RTVSPropertyOp3
 70
     1
102
RTVSPropertyOp4
 70
     1
102
RTVSPropertyOp5
 70
     1
102
RTVSPropertyOp6
 70
     1
102
RTVSPropertyOp7
 70
     1
102
RTVSPropertyOp8
 70
     1
102
RTVSPropertyOp9
 70
     1
102
RTVSPropertyOp10
 70
     1
102
RTVSPropertyOp11
 70
     1
102
RTVSPropertyOp12
 70
     1
102
RTVSPropertyOp13
 70
     1
102
RTVSPropertyOp14
 70
     1
102
RTVSPropertyOp15
 70
     1
102
RTVSPropertyOp16
 70
     1
102
RTVSPropertyOp17
 70
     1
102
RTVSPropertyOp18
 70
     1
102
RTVSPropertyOp19
 70
     1
102
RTVSPropertyOp20
 70
     1
102
RTVSPropertyOp21
 70
     1
102
RTVSPropertyOp22
 70
     1
102
RTVSPropertyOp23
 70
     1
102
RTVSPropertyOp24
 70
     1
102
RTVSPropertyOp25
 70
     1
102
RTVSPropertyOp26
 70
     1
102
RTVSPropertyOp27
 70
     1
102
RTVSPropertyOp28
 70
     1
102
RTVSPropertyOp29
 70
     1
102
RTVSPropertyOp30
 70
     1
102
RTVSPropertyOp31
 70
     1
102
RTVSPropertyOp32
 70
     1
102
RTVSPropertyOp33
 70
     1
102
RTVSPropertyOp34
 70
     1
102
RTVSPropertyOp35
 70
     1
102
RTVSPropertyOp36
 70
     1
102
RTVSPropertyOp37
 70
     1
102
RTVSPropertyOp38
 70
     1
102
RTVSPropertyOp39
 70
     1
102
RTVSPropertyOp40
 70
     1
102
RTVSPropertyOp41
 70
     1
102
RTVSPropertyOp42
 70
     1
102
RTVSPropertyOp43
 70
     1
102
RTVSPropertyOp44
 70
     1
102
RTVSPropertyOp45
 70
     1
102
RTVSPropertyOp46
 70
     1
102
RTVSPropertyOp47
 70
     1
102
RTVSPropertyOp48
 70
     1
102
RTVSPropertyOp49
 70
     1
102
RTVSPropertyOp50
 70
     1
102
RTVSPropertyOp51
 70
     0
102
RTVSPropertyOp52
 70
     0
102
RTVSPropertyOp53
 70
     1
102
RTVSPropertyOp54
 70
     1
102
RTVSPropertyOp55
 70
     1
102
RTVSPropertyOp56
 70
     1
102
RTVSPropertyOp57
 70
     1
102
RTVSPost2010Prop28
280
     0
102
RTVSPost2010PropOp28
 70
     1
102
RTVSPost2010Prop29
280
     1
102
RTVSPost2010PropOp29
 70
     1
102
RTVSPost2010Prop30
280
     1
102
RTVSPost2010PropOp30
 70
     1
102
RTVSPost2010Prop31
280
     0
102
RTVSPost2010PropOp31
 70
     1
102
RTVSPost2010Prop32
280
     0
102
RTVSPost2010PropOp32
 70
     1
102
RTVSPost2010Prop33
280
     0
102
RTVSPost2010PropOp33
 70
     1
102
RTVSPost2010Prop34
280
     0
102
RTVSPost2010PropOp34
 70
     1
102
RTVSPost2010Prop35
280
     0
102
RTVSPost2010PropOp35
 70
     1
102
RTVSPost2010Prop36
280
     0
102
RTVSPost2010PropOp36
 70
     1
102
RTVSPost2010Prop37
 90
       50
102
RTVSPost2010PropOp37
 70
     1
102
RTVSPost2010Prop38
140
0.0
102
RTVSPost2010PropOp38
 70
     1
102
RTVSPost2010Prop39
140
1.0
102
RTVSPost2010PropOp39
 70
     1
102
RTVSPost2010Prop40
 90
        0
102
RTVSPost2010PropOp40
 70
     1
102
RTVSPost2010Prop41ColorIndex
 90
       18
102
RTVSPost2010Prop41ColorRGB
 90
        0
102
RTVSPost2010PropOp41
 70
     1
102
RTVSPost2010Prop42
 90
       50
102
RTVSPost2010PropOp42
 70
     1
102
RTVSPost2010Prop43
 90
        3
102
RTVSPost2010PropOp43
 70
     1
102
RTVSPost2010Prop44ColorIndex
 90
        5
102
RTVSPost2010Prop44ColorRGB
 90
      255
102
RTVSPost2010PropOp44
 70
     1
102
RTVSPost2010Prop45
280
     0
102
RTVSPost2010PropOp45
 70
     1
102
RTVSPost2010Prop46
 90
       50
102
RTVSPost2010PropOp46
 70
     1
102
RTVSPost2010Prop47
 90
       50
102
RTVSPost2010PropOp47
 70
     1
102
RTVSPost2010Prop48
 90
       50
102
RTVSPost2010PropOp48
 70
     1
102
RTVSPost2010Prop49
280
     0
102
RTVSPost2010PropOp49
 70
     1
102
RTVSPost2010Prop50
 90
       50
102
RTVSPost2010PropOp50
 70
     1
102
RTVSPost2010Prop51ColorIndex
 90
      256
102
RTVSPost2010Prop51ColorRGB
 90
-16777216
102
RTVSPost2010PropOp51
 70
     0
102
RTVSPost2010Prop52
140
1.0
102
RTVSPost2010PropOp52
 70
     0
102
RTVSPost2010Prop53
 90
        2
102
RTVSPost2010PropOp53
 70
     1
102
RTVSPost2010Prop54
  1
strokes_ogs.tif
102
RTVSPost2010PropOp54
 70
     1
102
RTVSPost2010Prop55
280
     0
102
RTVSPost2010PropOp55
 70
     1
102
RTVSPost2010Prop56
140
1.0
102
RTVSPost2010PropOp56
 70
     1
102
RTVSPost2010Prop57
140
1.0
102
RTVSPost2010PropOp57
 70
     1
  0
XRECORD
  5
4CE
102
{ACAD_REACTORS
330
4CD
102
}
330
4CD
100
AcDbXrecord
280
     1
102
RTVSPropertyOp0
 70
     0
102
RTVSPropertyOp1
 70
     0
102
RTVSPropertyOp2
 70
     0
102
RTVSPropertyOp3
 70
     0
102
RTVSPropertyOp4
 70
     0
102
RTVSPropertyOp5
 70
     0
102
RTVSPropertyOp6
 70
     0
102
RTVSPropertyOp7
 70
     0
102
RTVSPropertyOp8
 70
     0
102
RTVSPropertyOp9
 70
     0
102
RTVSPropertyOp10
 70
     0
102
RTVSPropertyOp11
 70
     0
102
RTVSPropertyOp12
 70
     0
102
RTVSPropertyOp13
 70
     0
102
RTVSPropertyOp14
 70
     2
102
RTVSPropertyOp15
 70
     0
102
RTVSPropertyOp16
 70
     0
102
RTVSPropertyOp17
 70
     0
102
RTVSPropertyOp18
 70
     0
102
RTVSPropertyOp19
 70
     0
102
RTVSPropertyOp20
 70
     0
102
RTVSPropertyOp21
 70
     0
102
RTVSPropertyOp22
 70
     0
102
RTVSPropertyOp23
 70
     0
102
RTVSPropertyOp24
 70
     0
102
RTVSPropertyOp25
 70
     0
102
RTVSPropertyOp26
 70
     0
102
RTVSPropertyOp27
 70
     0
102
RTVSPropertyOp28
 70
     0
102
RTVSPropertyOp29
 70
     0
102
RTVSPropertyOp30
 70
     0
102
RTVSPropertyOp31
 70
     0
102
RTVSPropertyOp32
 70
     0
102
RTVSPropertyOp33
 70
     0
102
RTVSPropertyOp34
 70
     0
102
RTVSPropertyOp35
 70
     0
102
RTVSPropertyOp36
 70
     0
102
RTVSPropertyOp37
 70
     0
102
RTVSPropertyOp38
 70
     0
102
RTVSPropertyOp39
 70
     0
102
RTVSPropertyOp40
 70
     0
102
RTVSPropertyOp41
 70
     0
102
RTVSPropertyOp42
 70
     0
102
RTVSPropertyOp43
 70
     0
102
RTVSPropertyOp44
 70
     0
102
RTVSPropertyOp45
 70
     0
102
RTVSPropertyOp46
 70
     0
102
RTVSPropertyOp47
 70
     0
102
RTVSPropertyOp48
 70
     0
102
RTVSPropertyOp49
 70
     0
102
RTVSPropertyOp50
 70
     0
102
RTVSPropertyOp51
 70
     0
102
RTVSPropertyOp52
 70
     0
102
RTVSPropertyOp53
 70
     0
102
RTVSPropertyOp54
 70
     0
102
RTVSPropertyOp55
 70
     0
102
RTVSPropertyOp56
 70
     0
102
RTVSPropertyOp57
 70
     0
102
RTVSPost2010Prop28
280
     0
102
RTVSPost2010PropOp28
 70
     0
102
RTVSPost2010Prop29
280
     1
102
RTVSPost2010PropOp29
 70
     0
102
RTVSPost2010Prop30
280
     1
102
RTVSPost2010PropOp30
 70
     0
102
RTVSPost2010Prop31
280
     0
102
RTVSPost2010PropOp31
 70
     0
102
RTVSPost2010Prop32
280
     0
102
RTVSPost2010PropOp32
 70
     0
102
RTVSPost2010Prop33
280
     0
102
RTVSPost2010PropOp33
 70
     0
102
RTVSPost2010Prop34
280
     0
102
RTVSPost2010PropOp34
 70
     0
102
RTVSPost2010Prop35
280
     0
102
RTVSPost2010PropOp35
 70
     0
102
RTVSPost2010Prop36
280
     0
102
RTVSPost2010PropOp36
 70
     0
102
RTVSPost2010Prop37
 90
       50
102
RTVSPost2010PropOp37
 70
     0
102
RTVSPost2010Prop38
140
0.0
102
RTVSPost2010PropOp38
 70
     0
102
RTVSPost2010Prop39
140
1.0
102
RTVSPost2010PropOp39
 70
     0
102
RTVSPost2010Prop40
 90
        0
102
RTVSPost2010PropOp40
 70
     0
102
RTVSPost2010Prop41ColorIndex
 90
       18
102
RTVSPost2010Prop41ColorRGB
 90
        0
102
RTVSPost2010PropOp41
 70
     0
102
RTVSPost2010Prop42
 90
       50
102
RTVSPost2010PropOp42
 70
     0
102
RTVSPost2010Prop43
 90
        3
102
RTVSPost2010PropOp43
 70
     0
102
RTVSPost2010Prop44ColorIndex
 90
        5
102
RTVSPost2010Prop44ColorRGB
 90
      255
102
RTVSPost2010PropOp44
 70
     0
102
RTVSPost2010Prop45
280
     0
102
RTVSPost2010PropOp45
 70
     0
102
RTVSPost2010Prop46
 90
       50
102
RTVSPost2010PropOp46
 70
     0
102
RTVSPost2010Prop47
 90
       50
102
RTVSPost2010PropOp47
 70
     0
102
RTVSPost2010Prop48
 90
       50
102
RTVSPost2010PropOp48
 70
     0
102
RTVSPost2010Prop49
280
     0
102
RTVSPost2010PropOp49
 70
     0
102
RTVSPost2010Prop50
 90
       50
102
RTVSPost2010PropOp50
 70
     0
102
RTVSPost2010Prop51ColorIndex
 90
      256
102
RTVSPost2010Prop51ColorRGB
 90
-16777216
102
RTVSPost2010PropOp51
 70
     0
102
RTVSPost2010Prop52
140
1.0
102
RTVSPost2010PropOp52
 70
     0
102
RTVSPost2010Prop53
 90
        2
102
RTVSPost2010PropOp53
 70
     0
102
RTVSPost2010Prop54
  1
strokes_ogs.tif
102
RTVSPost2010PropOp54
 70
     0
102
RTVSPost2010Prop55
280
     0
102
RTVSPost2010PropOp55
 70
     0
102
RTVSPost2010Prop56
140
1.0
102
RTVSPost2010PropOp56
 70
     0
102
RTVSPost2010Prop57
140
1.0
102
RTVSPost2010PropOp57
 70
     0
  0
XRECORD
  5
4BC
102
{ACAD_REACTORS
330
4BB
102
}
330
4BB
100
AcDbXrecord
280
     1
102
RTVSPropertyOp0
 70
     1
102
RTVSPropertyOp1
 70
     1
102
RTVSPropertyOp2
 70
     1
102
RTVSPropertyOp3
 70
     1
102
RTVSPropertyOp4
 70
     1
102
RTVSPropertyOp5
 70
     1
102
RTVSPropertyOp6
 70
     1
102
RTVSPropertyOp7
 70
     1
102
RTVSPropertyOp8
 70
     1
102
RTVSPropertyOp9
 70
     1
102
RTVSPropertyOp10
 70
     1
102
RTVSPropertyOp11
 70
     1
102
RTVSPropertyOp12
 70
     1
102
RTVSPropertyOp13
 70
     1
102
RTVSPropertyOp14
 70
     1
102
RTVSPropertyOp15
 70
     1
102
RTVSPropertyOp16
 70
     1
102
RTVSPropertyOp17
 70
     1
102
RTVSPropertyOp18
 70
     1
102
RTVSPropertyOp19
 70
     1
102
RTVSPropertyOp20
 70
     1
102
RTVSPropertyOp21
 70
     1
102
RTVSPropertyOp22
 70
     1
102
RTVSPropertyOp23
 70
     1
102
RTVSPropertyOp24
 70
     1
102
RTVSPropertyOp25
 70
     1
102
RTVSPropertyOp26
 70
     1
102
RTVSPropertyOp27
 70
     1
102
RTVSPropertyOp28
 70
     1
102
RTVSPropertyOp29
 70
     1
102
RTVSPropertyOp30
 70
     1
102
RTVSPropertyOp31
 70
     1
102
RTVSPropertyOp32
 70
     1
102
RTVSPropertyOp33
 70
     1
102
RTVSPropertyOp34
 70
     1
102
RTVSPropertyOp35
 70
     1
102
RTVSPropertyOp36
 70
     1
102
RTVSPropertyOp37
 70
     1
102
RTVSPropertyOp38
 70
     1
102
RTVSPropertyOp39
 70
     1
102
RTVSPropertyOp40
 70
     1
102
RTVSPropertyOp41
 70
     1
102
RTVSPropertyOp42
 70
     1
102
RTVSPropertyOp43
 70
     1
102
RTVSPropertyOp44
 70
     1
102
RTVSPropertyOp45
 70
     1
102
RTVSPropertyOp46
 70
     1
102
RTVSPropertyOp47
 70
     1
102
RTVSPropertyOp48
 70
     1
102
RTVSPropertyOp49
 70
     1
102
RTVSPropertyOp50
 70
     1
102
RTVSPropertyOp51
 70
     0
102
RTVSPropertyOp52
 70
     0
102
RTVSPropertyOp53
 70
     1
102
RTVSPropertyOp54
 70
     1
102
RTVSPropertyOp55
 70
     1
102
RTVSPropertyOp56
 70
     1
102
RTVSPropertyOp57
 70
     1
102
RTVSPost2010Prop28
280
     0
102
RTVSPost2010PropOp28
 70
     1
102
RTVSPost2010Prop29
280
     1
102
RTVSPost2010PropOp29
 70
     1
102
RTVSPost2010Prop30
280
     1
102
RTVSPost2010PropOp30
 70
     1
102
RTVSPost2010Prop31
280
     0
102
RTVSPost2010PropOp31
 70
     1
102
RTVSPost2010Prop32
280
     0
102
RTVSPost2010PropOp32
 70
     1
102
RTVSPost2010Prop33
280
     0
102
RTVSPost2010PropOp33
 70
     1
102
RTVSPost2010Prop34
280
     0
102
RTVSPost2010PropOp34
 70
     1
102
RTVSPost2010Prop35
280
     0
102
RTVSPost2010PropOp35
 70
     1
102
RTVSPost2010Prop36
280
     0
102
RTVSPost2010PropOp36
 70
     1
102
RTVSPost2010Prop37
 90
       50
102
RTVSPost2010PropOp37
 70
     1
102
RTVSPost2010Prop38
140
0.0
102
RTVSPost2010PropOp38
 70
     1
102
RTVSPost2010Prop39
140
1.0
102
RTVSPost2010PropOp39
 70
     1
102
RTVSPost2010Prop40
 90
        0
102
RTVSPost2010PropOp40
 70
     1
102
RTVSPost2010Prop41ColorIndex
 90
       18
102
RTVSPost2010Prop41ColorRGB
 90
        0
102
RTVSPost2010PropOp41
 70
     1
102
RTVSPost2010Prop42
 90
       50
102
RTVSPost2010PropOp42
 70
     1
102
RTVSPost2010Prop43
 90
        3
102
RTVSPost2010PropOp43
 70
     1
102
RTVSPost2010Prop44ColorIndex
 90
        5
102
RTVSPost2010Prop44ColorRGB
 90
      255
102
RTVSPost2010PropOp44
 70
     1
102
RTVSPost2010Prop45
280
     0
102
RTVSPost2010PropOp45
 70
     1
102
RTVSPost2010Prop46
 90
       50
102
RTVSPost2010PropOp46
 70
     1
102
RTVSPost2010Prop47
 90
       50
102
RTVSPost2010PropOp47
 70
     1
102
RTVSPost2010Prop48
 90
       50
102
RTVSPost2010PropOp48
 70
     1
102
RTVSPost2010Prop49
280
     0
102
RTVSPost2010PropOp49
 70
     1
102
RTVSPost2010Prop50
 90
       50
102
RTVSPost2010PropOp50
 70
     1
102
RTVSPost2010Prop51ColorIndex
 90
      256
102
RTVSPost2010Prop51ColorRGB
 90
-16777216
102
RTVSPost2010PropOp51
 70
     0
102
RTVSPost2010Prop52
140
1.0
102
RTVSPost2010PropOp52
 70
     0
102
RTVSPost2010Prop53
 90
        2
102
RTVSPost2010PropOp53
 70
     1
102
RTVSPost2010Prop54
  1
strokes_ogs.tif
102
RTVSPost2010PropOp54
 70
     1
102
RTVSPost2010Prop55
280
     0
102
RTVSPost2010PropOp55
 70
     1
102
RTVSPost2010Prop56
140
1.0
102
RTVSPost2010PropOp56
 70
     1
102
RTVSPost2010Prop57
140
1.0
102
RTVSPost2010PropOp57
 70
     1
  0
XRECORD
  5
4DA
102
{ACAD_REACTORS
330
4D9
102
}
330
4D9
100
AcDbXrecord
280
     1
102
RTVSPropertyOp0
 70
     1
102
RTVSPropertyOp1
 70
     1
102
RTVSPropertyOp2
 70
     1
102
RTVSPropertyOp3
 70
     1
102
RTVSPropertyOp4
 70
     1
102
RTVSPropertyOp5
 70
     1
102
RTVSPropertyOp6
 70
     1
102
RTVSPropertyOp7
 70
     1
102
RTVSPropertyOp8
 70
     1
102
RTVSPropertyOp9
 70
     1
102
RTVSPropertyOp10
 70
     1
102
RTVSPropertyOp11
 70
     1
102
RTVSPropertyOp12
 70
     1
102
RTVSPropertyOp13
 70
     1
102
RTVSPropertyOp14
 70
     1
102
RTVSPropertyOp15
 70
     1
102
RTVSPropertyOp16
 70
     1
102
RTVSPropertyOp17
 70
     1
102
RTVSPropertyOp18
 70
     1
102
RTVSPropertyOp19
 70
     1
102
RTVSPropertyOp20
 70
     1
102
RTVSPropertyOp21
 70
     1
102
RTVSPropertyOp22
 70
     1
102
RTVSPropertyOp23
 70
     1
102
RTVSPropertyOp24
 70
     1
102
RTVSPropertyOp25
 70
     1
102
RTVSPropertyOp26
 70
     1
102
RTVSPropertyOp27
 70
     1
102
RTVSPropertyOp28
 70
     1
102
RTVSPropertyOp29
 70
     1
102
RTVSPropertyOp30
 70
     1
102
RTVSPropertyOp31
 70
     1
102
RTVSPropertyOp32
 70
     1
102
RTVSPropertyOp33
 70
     1
102
RTVSPropertyOp34
 70
     1
102
RTVSPropertyOp35
 70
     1
102
RTVSPropertyOp36
 70
     1
102
RTVSPropertyOp37
 70
     1
102
RTVSPropertyOp38
 70
     1
102
RTVSPropertyOp39
 70
     1
102
RTVSPropertyOp40
 70
     1
102
RTVSPropertyOp41
 70
     1
102
RTVSPropertyOp42
 70
     1
102
RTVSPropertyOp43
 70
     1
102
RTVSPropertyOp44
 70
     1
102
RTVSPropertyOp45
 70
     1
102
RTVSPropertyOp46
 70
     1
102
RTVSPropertyOp47
 70
     1
102
RTVSPropertyOp48
 70
     1
102
RTVSPropertyOp49
 70
     1
102
RTVSPropertyOp50
 70
     1
102
RTVSPropertyOp51
 70
     0
102
RTVSPropertyOp52
 70
     0
102
RTVSPropertyOp53
 70
     1
102
RTVSPropertyOp54
 70
     1
102
RTVSPropertyOp55
 70
     1
102
RTVSPropertyOp56
 70
     1
102
RTVSPropertyOp57
 70
     1
102
RTVSPost2010Prop28
280
     0
102
RTVSPost2010PropOp28
 70
     1
102
RTVSPost2010Prop29
280
     1
102
RTVSPost2010PropOp29
 70
     1
102
RTVSPost2010Prop30
280
     1
102
RTVSPost2010PropOp30
 70
     1
102
RTVSPost2010Prop31
280
     0
102
RTVSPost2010PropOp31
 70
     1
102
RTVSPost2010Prop32
280
     0
102
RTVSPost2010PropOp32
 70
     1
102
RTVSPost2010Prop33
280
     0
102
RTVSPost2010PropOp33
 70
     1
102
RTVSPost2010Prop34
280
     0
102
RTVSPost2010PropOp34
 70
     1
102
RTVSPost2010Prop35
280
     0
102
RTVSPost2010PropOp35
 70
     1
102
RTVSPost2010Prop36
280
     0
102
RTVSPost2010PropOp36
 70
     1
102
RTVSPost2010Prop37
 90
       50
102
RTVSPost2010PropOp37
 70
     1
102
RTVSPost2010Prop38
140
0.0
102
RTVSPost2010PropOp38
 70
     1
102
RTVSPost2010Prop39
140
1.0
102
RTVSPost2010PropOp39
 70
     1
102
RTVSPost2010Prop40
 90
        0
102
RTVSPost2010PropOp40
 70
     1
102
RTVSPost2010Prop41ColorIndex
 90
       18
102
RTVSPost2010Prop41ColorRGB
 90
        0
102
RTVSPost2010PropOp41
 70
     1
102
RTVSPost2010Prop42
 90
       50
102
RTVSPost2010PropOp42
 70
     1
102
RTVSPost2010Prop43
 90
        3
102
RTVSPost2010PropOp43
 70
     1
102
RTVSPost2010Prop44ColorIndex
 90
        5
102
RTVSPost2010Prop44ColorRGB
 90
      255
102
RTVSPost2010PropOp44
 70
     1
102
RTVSPost2010Prop45
280
     0
102
RTVSPost2010PropOp45
 70
     1
102
RTVSPost2010Prop46
 90
       50
102
RTVSPost2010PropOp46
 70
     1
102
RTVSPost2010Prop47
 90
       50
102
RTVSPost2010PropOp47
 70
     1
102
RTVSPost2010Prop48
 90
       50
102
RTVSPost2010PropOp48
 70
     1
102
RTVSPost2010Prop49
280
     0
102
RTVSPost2010PropOp49
 70
     1
102
RTVSPost2010Prop50
 90
       50
102
RTVSPost2010PropOp50
 70
     1
102
RTVSPost2010Prop51ColorIndex
 90
      256
102
RTVSPost2010Prop51ColorRGB
 90
-16777216
102
RTVSPost2010PropOp51
 70
     0
102
RTVSPost2010Prop52
140
1.0
102
RTVSPost2010PropOp52
 70
     0
102
RTVSPost2010Prop53
 90
        2
102
RTVSPost2010PropOp53
 70
     1
102
RTVSPost2010Prop54
  1
strokes_ogs.tif
102
RTVSPost2010PropOp54
 70
     1
102
RTVSPost2010Prop55
280
     0
102
RTVSPost2010PropOp55
 70
     1
102
RTVSPost2010Prop56
140
1.0
102
RTVSPost2010PropOp56
 70
     1
102
RTVSPost2010Prop57
140
1.0
102
RTVSPost2010PropOp57
 70
     1
  0
XRECORD
  5
4D8
102
{ACAD_REACTORS
330
4D7
102
}
330
4D7
100
AcDbXrecord
280
     1
102
RTVSPropertyOp0
 70
     1
102
RTVSPropertyOp1
 70
     1
102
RTVSPropertyOp2
 70
     1
102
RTVSPropertyOp3
 70
     1
102
RTVSPropertyOp4
 70
     1
102
RTVSPropertyOp5
 70
     1
102
RTVSPropertyOp6
 70
     1
102
RTVSPropertyOp7
 70
     1
102
RTVSPropertyOp8
 70
     1
102
RTVSPropertyOp9
 70
     1
102
RTVSPropertyOp10
 70
     1
102
RTVSPropertyOp11
 70
     1
102
RTVSPropertyOp12
 70
     1
102
RTVSPropertyOp13
 70
     1
102
RTVSPropertyOp14
 70
     1
102
RTVSPropertyOp15
 70
     1
102
RTVSPropertyOp16
 70
     1
102
RTVSPropertyOp17
 70
     1
102
RTVSPropertyOp18
 70
     1
102
RTVSPropertyOp19
 70
     1
102
RTVSPropertyOp20
 70
     1
102
RTVSPropertyOp21
 70
     1
102
RTVSPropertyOp22
 70
     1
102
RTVSPropertyOp23
 70
     1
102
RTVSPropertyOp24
 70
     1
102
RTVSPropertyOp25
 70
     1
102
RTVSPropertyOp26
 70
     1
102
RTVSPropertyOp27
 70
     1
102
RTVSPropertyOp28
 70
     1
102
RTVSPropertyOp29
 70
     1
102
RTVSPropertyOp30
 70
     1
102
RTVSPropertyOp31
 70
     1
102
RTVSPropertyOp32
 70
     1
102
RTVSPropertyOp33
 70
     1
102
RTVSPropertyOp34
 70
     1
102
RTVSPropertyOp35
 70
     1
102
RTVSPropertyOp36
 70
     1
102
RTVSPropertyOp37
 70
     1
102
RTVSPropertyOp38
 70
     1
102
RTVSPropertyOp39
 70
     1
102
RTVSPropertyOp40
 70
     1
102
RTVSPropertyOp41
 70
     1
102
RTVSPropertyOp42
 70
     1
102
RTVSPropertyOp43
 70
     1
102
RTVSPropertyOp44
 70
     1
102
RTVSPropertyOp45
 70
     1
102
RTVSPropertyOp46
 70
     1
102
RTVSPropertyOp47
 70
     1
102
RTVSPropertyOp48
 70
     1
102
RTVSPropertyOp49
 70
     1
102
RTVSPropertyOp50
 70
     1
102
RTVSPropertyOp51
 70
     0
102
RTVSPropertyOp52
 70
     0
102
RTVSPropertyOp53
 70
     1
102
RTVSPropertyOp54
 70
     1
102
RTVSPropertyOp55
 70
     1
102
RTVSPropertyOp56
 70
     1
102
RTVSPropertyOp57
 70
     1
102
RTVSPost2010Prop28
280
     0
102
RTVSPost2010PropOp28
 70
     1
102
RTVSPost2010Prop29
280
     1
102
RTVSPost2010PropOp29
 70
     1
102
RTVSPost2010Prop30
280
     1
102
RTVSPost2010PropOp30
 70
     1
102
RTVSPost2010Prop31
280
     0
102
RTVSPost2010PropOp31
 70
     1
102
RTVSPost2010Prop32
280
     0
102
RTVSPost2010PropOp32
 70
     1
102
RTVSPost2010Prop33
280
     0
102
RTVSPost2010PropOp33
 70
     1
102
RTVSPost2010Prop34
280
     0
102
RTVSPost2010PropOp34
 70
     1
102
RTVSPost2010Prop35
280
     0
102
RTVSPost2010PropOp35
 70
     1
102
RTVSPost2010Prop36
280
     0
102
RTVSPost2010PropOp36
 70
     1
102
RTVSPost2010Prop37
 90
       50
102
RTVSPost2010PropOp37
 70
     1
102
RTVSPost2010Prop38
140
0.0
102
RTVSPost2010PropOp38
 70
     1
102
RTVSPost2010Prop39
140
1.0
102
RTVSPost2010PropOp39
 70
     1
102
RTVSPost2010Prop40
 90
        0
102
RTVSPost2010PropOp40
 70
     1
102
RTVSPost2010Prop41ColorIndex
 90
       18
102
RTVSPost2010Prop41ColorRGB
 90
        0
102
RTVSPost2010PropOp41
 70
     1
102
RTVSPost2010Prop42
 90
       50
102
RTVSPost2010PropOp42
 70
     1
102
RTVSPost2010Prop43
 90
        3
102
RTVSPost2010PropOp43
 70
     1
102
RTVSPost2010Prop44ColorIndex
 90
        5
102
RTVSPost2010Prop44ColorRGB
 90
      255
102
RTVSPost2010PropOp44
 70
     1
102
RTVSPost2010Prop45
280
     0
102
RTVSPost2010PropOp45
 70
     1
102
RTVSPost2010Prop46
 90
       50
102
RTVSPost2010PropOp46
 70
     1
102
RTVSPost2010Prop47
 90
       50
102
RTVSPost2010PropOp47
 70
     1
102
RTVSPost2010Prop48
 90
       50
102
RTVSPost2010PropOp48
 70
     1
102
RTVSPost2010Prop49
280
     0
102
RTVSPost2010PropOp49
 70
     1
102
RTVSPost2010Prop50
 90
       50
102
RTVSPost2010PropOp50
 70
     1
102
RTVSPost2010Prop51ColorIndex
 90
      256
102
RTVSPost2010Prop51ColorRGB
 90
-16777216
102
RTVSPost2010PropOp51
 70
     0
102
RTVSPost2010Prop52
140
1.0
102
RTVSPost2010PropOp52
 70
     0
102
RTVSPost2010Prop53
 90
        2
102
RTVSPost2010PropOp53
 70
     1
102
RTVSPost2010Prop54
  1
strokes_ogs.tif
102
RTVSPost2010PropOp54
 70
     1
102
RTVSPost2010Prop55
280
     0
102
RTVSPost2010PropOp55
 70
     1
102
RTVSPost2010Prop56
140
1.0
102
RTVSPost2010PropOp56
 70
     1
102
RTVSPost2010Prop57
140
1.0
102
RTVSPost2010PropOp57
 70
     1
  0
XRECORD
  5
4D2
102
{ACAD_REACTORS
330
4D1
102
}
330
4D1
100
AcDbXrecord
280
     1
102
RTVSPropertyOp0
 70
     1
102
RTVSPropertyOp1
 70
     1
102
RTVSPropertyOp2
 70
     1
102
RTVSPropertyOp3
 70
     1
102
RTVSPropertyOp4
 70
     1
102
RTVSPropertyOp5
 70
     1
102
RTVSPropertyOp6
 70
     1
102
RTVSPropertyOp7
 70
     1
102
RTVSPropertyOp8
 70
     1
102
RTVSPropertyOp9
 70
     1
102
RTVSPropertyOp10
 70
     1
102
RTVSPropertyOp11
 70
     1
102
RTVSPropertyOp12
 70
     1
102
RTVSPropertyOp13
 70
     1
102
RTVSPropertyOp14
 70
     1
102
RTVSPropertyOp15
 70
     1
102
RTVSPropertyOp16
 70
     1
102
RTVSPropertyOp17
 70
     1
102
RTVSPropertyOp18
 70
     1
102
RTVSPropertyOp19
 70
     1
102
RTVSPropertyOp20
 70
     1
102
RTVSPropertyOp21
 70
     1
102
RTVSPropertyOp22
 70
     1
102
RTVSPropertyOp23
 70
     1
102
RTVSPropertyOp24
 70
     1
102
RTVSPropertyOp25
 70
     1
102
RTVSPropertyOp26
 70
     1
102
RTVSPropertyOp27
 70
     1
102
RTVSPropertyOp28
 70
     1
102
RTVSPropertyOp29
 70
     1
102
RTVSPropertyOp30
 70
     1
102
RTVSPropertyOp31
 70
     1
102
RTVSPropertyOp32
 70
     1
102
RTVSPropertyOp33
 70
     1
102
RTVSPropertyOp34
 70
     1
102
RTVSPropertyOp35
 70
     1
102
RTVSPropertyOp36
 70
     1
102
RTVSPropertyOp37
 70
     1
102
RTVSPropertyOp38
 70
     1
102
RTVSPropertyOp39
 70
     1
102
RTVSPropertyOp40
 70
     1
102
RTVSPropertyOp41
 70
     1
102
RTVSPropertyOp42
 70
     1
102
RTVSPropertyOp43
 70
     1
102
RTVSPropertyOp44
 70
     1
102
RTVSPropertyOp45
 70
     1
102
RTVSPropertyOp46
 70
     1
102
RTVSPropertyOp47
 70
     1
102
RTVSPropertyOp48
 70
     1
102
RTVSPropertyOp49
 70
     1
102
RTVSPropertyOp50
 70
     1
102
RTVSPropertyOp51
 70
     0
102
RTVSPropertyOp52
 70
     0
102
RTVSPropertyOp53
 70
     1
102
RTVSPropertyOp54
 70
     1
102
RTVSPropertyOp55
 70
     1
102
RTVSPropertyOp56
 70
     1
102
RTVSPropertyOp57
 70
     1
102
RTVSPost2010Prop28
280
     0
102
RTVSPost2010PropOp28
 70
     1
102
RTVSPost2010Prop29
280
     1
102
RTVSPost2010PropOp29
 70
     1
102
RTVSPost2010Prop30
280
     1
102
RTVSPost2010PropOp30
 70
     1
102
RTVSPost2010Prop31
280
     0
102
RTVSPost2010PropOp31
 70
     1
102
RTVSPost2010Prop32
280
     0
102
RTVSPost2010PropOp32
 70
     1
102
RTVSPost2010Prop33
280
     0
102
RTVSPost2010PropOp33
 70
     1
102
RTVSPost2010Prop34
280
     0
102
RTVSPost2010PropOp34
 70
     1
102
RTVSPost2010Prop35
280
     0
102
RTVSPost2010PropOp35
 70
     1
102
RTVSPost2010Prop36
280
     0
102
RTVSPost2010PropOp36
 70
     1
102
RTVSPost2010Prop37
 90
       50
102
RTVSPost2010PropOp37
 70
     1
102
RTVSPost2010Prop38
140
0.0
102
RTVSPost2010PropOp38
 70
     1
102
RTVSPost2010Prop39
140
1.0
102
RTVSPost2010PropOp39
 70
     1
102
RTVSPost2010Prop40
 90
        0
102
RTVSPost2010PropOp40
 70
     1
102
RTVSPost2010Prop41ColorIndex
 90
       18
102
RTVSPost2010Prop41ColorRGB
 90
        0
102
RTVSPost2010PropOp41
 70
     1
102
RTVSPost2010Prop42
 90
       50
102
RTVSPost2010PropOp42
 70
     1
102
RTVSPost2010Prop43
 90
        3
102
RTVSPost2010PropOp43
 70
     1
102
RTVSPost2010Prop44ColorIndex
 90
        5
102
RTVSPost2010Prop44ColorRGB
 90
      255
102
RTVSPost2010PropOp44
 70
     1
102
RTVSPost2010Prop45
280
     0
102
RTVSPost2010PropOp45
 70
     1
102
RTVSPost2010Prop46
 90
       50
102
RTVSPost2010PropOp46
 70
     1
102
RTVSPost2010Prop47
 90
       50
102
RTVSPost2010PropOp47
 70
     1
102
RTVSPost2010Prop48
 90
       50
102
RTVSPost2010PropOp48
 70
     1
102
RTVSPost2010Prop49
280
     0
102
RTVSPost2010PropOp49
 70
     1
102
RTVSPost2010Prop50
 90
       50
102
RTVSPost2010PropOp50
 70
     1
102
RTVSPost2010Prop51ColorIndex
 90
      256
102
RTVSPost2010Prop51ColorRGB
 90
-16777216
102
RTVSPost2010PropOp51
 70
     0
102
RTVSPost2010Prop52
140
1.0
102
RTVSPost2010PropOp52
 70
     0
102
RTVSPost2010Prop53
 90
        2
102
RTVSPost2010PropOp53
 70
     1
102
RTVSPost2010Prop54
  1
strokes_ogs.tif
102
RTVSPost2010PropOp54
 70
     1
102
RTVSPost2010Prop55
280
     0
102
RTVSPost2010PropOp55
 70
     1
102
RTVSPost2010Prop56
140
1.0
102
RTVSPost2010PropOp56
 70
     1
102
RTVSPost2010Prop57
140
1.0
102
RTVSPost2010PropOp57
 70
     1
  0
XRECORD
  5
4D4
102
{ACAD_REACTORS
330
4D3
102
}
330
4D3
100
AcDbXrecord
280
     1
102
RTVSPropertyOp0
 70
     1
102
RTVSPropertyOp1
 70
     1
102
RTVSPropertyOp2
 70
     1
102
RTVSPropertyOp3
 70
     1
102
RTVSPropertyOp4
 70
     1
102
RTVSPropertyOp5
 70
     1
102
RTVSPropertyOp6
 70
     1
102
RTVSPropertyOp7
 70
     1
102
RTVSPropertyOp8
 70
     1
102
RTVSPropertyOp9
 70
     1
102
RTVSPropertyOp10
 70
     1
102
RTVSPropertyOp11
 70
     1
102
RTVSPropertyOp12
 70
     1
102
RTVSPropertyOp13
 70
     1
102
RTVSPropertyOp14
 70
     1
102
RTVSPropertyOp15
 70
     1
102
RTVSPropertyOp16
 70
     1
102
RTVSPropertyOp17
 70
     1
102
RTVSPropertyOp18
 70
     1
102
RTVSPropertyOp19
 70
     1
102
RTVSPropertyOp20
 70
     1
102
RTVSPropertyOp21
 70
     1
102
RTVSPropertyOp22
 70
     1
102
RTVSPropertyOp23
 70
     1
102
RTVSPropertyOp24
 70
     1
102
RTVSPropertyOp25
 70
     1
102
RTVSPropertyOp26
 70
     1
102
RTVSPropertyOp27
 70
     1
102
RTVSPropertyOp28
 70
     1
102
RTVSPropertyOp29
 70
     1
102
RTVSPropertyOp30
 70
     1
102
RTVSPropertyOp31
 70
     1
102
RTVSPropertyOp32
 70
     1
102
RTVSPropertyOp33
 70
     1
102
RTVSPropertyOp34
 70
     1
102
RTVSPropertyOp35
 70
     1
102
RTVSPropertyOp36
 70
     1
102
RTVSPropertyOp37
 70
     1
102
RTVSPropertyOp38
 70
     1
102
RTVSPropertyOp39
 70
     1
102
RTVSPropertyOp40
 70
     1
102
RTVSPropertyOp41
 70
     1
102
RTVSPropertyOp42
 70
     1
102
RTVSPropertyOp43
 70
     1
102
RTVSPropertyOp44
 70
     1
102
RTVSPropertyOp45
 70
     1
102
RTVSPropertyOp46
 70
     1
102
RTVSPropertyOp47
 70
     1
102
RTVSPropertyOp48
 70
     1
102
RTVSPropertyOp49
 70
     1
102
RTVSPropertyOp50
 70
     1
102
RTVSPropertyOp51
 70
     0
102
RTVSPropertyOp52
 70
     0
102
RTVSPropertyOp53
 70
     1
102
RTVSPropertyOp54
 70
     1
102
RTVSPropertyOp55
 70
     1
102
RTVSPropertyOp56
 70
     1
102
RTVSPropertyOp57
 70
     1
102
RTVSPost2010Prop28
280
     0
102
RTVSPost2010PropOp28
 70
     1
102
RTVSPost2010Prop29
280
     1
102
RTVSPost2010PropOp29
 70
     1
102
RTVSPost2010Prop30
280
     1
102
RTVSPost2010PropOp30
 70
     1
102
RTVSPost2010Prop31
280
     0
102
RTVSPost2010PropOp31
 70
     1
102
RTVSPost2010Prop32
280
     0
102
RTVSPost2010PropOp32
 70
     1
102
RTVSPost2010Prop33
280
     0
102
RTVSPost2010PropOp33
 70
     1
102
RTVSPost2010Prop34
280
     0
102
RTVSPost2010PropOp34
 70
     1
102
RTVSPost2010Prop35
280
     0
102
RTVSPost2010PropOp35
 70
     1
102
RTVSPost2010Prop36
280
     0
102
RTVSPost2010PropOp36
 70
     1
102
RTVSPost2010Prop37
 90
       50
102
RTVSPost2010PropOp37
 70
     1
102
RTVSPost2010Prop38
140
0.0
102
RTVSPost2010PropOp38
 70
     1
102
RTVSPost2010Prop39
140
1.0
102
RTVSPost2010PropOp39
 70
     1
102
RTVSPost2010Prop40
 90
        0
102
RTVSPost2010PropOp40
 70
     1
102
RTVSPost2010Prop41ColorIndex
 90
       18
102
RTVSPost2010Prop41ColorRGB
 90
        0
102
RTVSPost2010PropOp41
 70
     1
102
RTVSPost2010Prop42
 90
       50
102
RTVSPost2010PropOp42
 70
     1
102
RTVSPost2010Prop43
 90
        3
102
RTVSPost2010PropOp43
 70
     1
102
RTVSPost2010Prop44ColorIndex
 90
        5
102
RTVSPost2010Prop44ColorRGB
 90
      255
102
RTVSPost2010PropOp44
 70
     1
102
RTVSPost2010Prop45
280
     0
102
RTVSPost2010PropOp45
 70
     1
102
RTVSPost2010Prop46
 90
       50
102
RTVSPost2010PropOp46
 70
     1
102
RTVSPost2010Prop47
 90
       50
102
RTVSPost2010PropOp47
 70
     1
102
RTVSPost2010Prop48
 90
       50
102
RTVSPost2010PropOp48
 70
     1
102
RTVSPost2010Prop49
280
     0
102
RTVSPost2010PropOp49
 70
     1
102
RTVSPost2010Prop50
 90
       50
102
RTVSPost2010PropOp50
 70
     1
102
RTVSPost2010Prop51ColorIndex
 90
      256
102
RTVSPost2010Prop51ColorRGB
 90
-16777216
102
RTVSPost2010PropOp51
 70
     0
102
RTVSPost2010Prop52
140
1.0
102
RTVSPost2010PropOp52
 70
     0
102
RTVSPost2010Prop53
 90
        2
102
RTVSPost2010PropOp53
 70
     1
102
RTVSPost2010Prop54
  1
strokes_ogs.tif
102
RTVSPost2010PropOp54
 70
     1
102
RTVSPost2010Prop55
280
     0
102
RTVSPost2010PropOp55
 70
     1
102
RTVSPost2010Prop56
140
1.0
102
RTVSPost2010PropOp56
 70
     1
102
RTVSPost2010Prop57
140
1.0
102
RTVSPost2010PropOp57
 70
     1
  0
XRECORD
  5
4C4
102
{ACAD_REACTORS
330
4C3
102
}
330
4C3
100
AcDbXrecord
280
     1
102
RTVSPropertyOp0
 70
     1
102
RTVSPropertyOp1
 70
     1
102
RTVSPropertyOp2
 70
     1
102
RTVSPropertyOp3
 70
     1
102
RTVSPropertyOp4
 70
     1
102
RTVSPropertyOp5
 70
     1
102
RTVSPropertyOp6
 70
     1
102
RTVSPropertyOp7
 70
     1
102
RTVSPropertyOp8
 70
     1
102
RTVSPropertyOp9
 70
     1
102
RTVSPropertyOp10
 70
     1
102
RTVSPropertyOp11
 70
     1
102
RTVSPropertyOp12
 70
     1
102
RTVSPropertyOp13
 70
     1
102
RTVSPropertyOp14
 70
     1
102
RTVSPropertyOp15
 70
     1
102
RTVSPropertyOp16
 70
     1
102
RTVSPropertyOp17
 70
     1
102
RTVSPropertyOp18
 70
     1
102
RTVSPropertyOp19
 70
     1
102
RTVSPropertyOp20
 70
     1
102
RTVSPropertyOp21
 70
     1
102
RTVSPropertyOp22
 70
     1
102
RTVSPropertyOp23
 70
     1
102
RTVSPropertyOp24
 70
     1
102
RTVSPropertyOp25
 70
     1
102
RTVSPropertyOp26
 70
     1
102
RTVSPropertyOp27
 70
     1
102
RTVSPropertyOp28
 70
     1
102
RTVSPropertyOp29
 70
     1
102
RTVSPropertyOp30
 70
     1
102
RTVSPropertyOp31
 70
     1
102
RTVSPropertyOp32
 70
     1
102
RTVSPropertyOp33
 70
     1
102
RTVSPropertyOp34
 70
     1
102
RTVSPropertyOp35
 70
     1
102
RTVSPropertyOp36
 70
     1
102
RTVSPropertyOp37
 70
     1
102
RTVSPropertyOp38
 70
     1
102
RTVSPropertyOp39
 70
     1
102
RTVSPropertyOp40
 70
     1
102
RTVSPropertyOp41
 70
     1
102
RTVSPropertyOp42
 70
     1
102
RTVSPropertyOp43
 70
     1
102
RTVSPropertyOp44
 70
     1
102
RTVSPropertyOp45
 70
     1
102
RTVSPropertyOp46
 70
     1
102
RTVSPropertyOp47
 70
     1
102
RTVSPropertyOp48
 70
     1
102
RTVSPropertyOp49
 70
     1
102
RTVSPropertyOp50
 70
     1
102
RTVSPropertyOp51
 70
     0
102
RTVSPropertyOp52
 70
     0
102
RTVSPropertyOp53
 70
     1
102
RTVSPropertyOp54
 70
     1
102
RTVSPropertyOp55
 70
     1
102
RTVSPropertyOp56
 70
     1
102
RTVSPropertyOp57
 70
     1
102
RTVSPost2010Prop28
280
     0
102
RTVSPost2010PropOp28
 70
     1
102
RTVSPost2010Prop29
280
     1
102
RTVSPost2010PropOp29
 70
     1
102
RTVSPost2010Prop30
280
     1
102
RTVSPost2010PropOp30
 70
     1
102
RTVSPost2010Prop31
280
     0
102
RTVSPost2010PropOp31
 70
     1
102
RTVSPost2010Prop32
280
     0
102
RTVSPost2010PropOp32
 70
     1
102
RTVSPost2010Prop33
280
     0
102
RTVSPost2010PropOp33
 70
     1
102
RTVSPost2010Prop34
280
     0
102
RTVSPost2010PropOp34
 70
     1
102
RTVSPost2010Prop35
280
     0
102
RTVSPost2010PropOp35
 70
     1
102
RTVSPost2010Prop36
280
     0
102
RTVSPost2010PropOp36
 70
     1
102
RTVSPost2010Prop37
 90
       50
102
RTVSPost2010PropOp37
 70
     1
102
RTVSPost2010Prop38
140
0.0
102
RTVSPost2010PropOp38
 70
     1
102
RTVSPost2010Prop39
140
1.0
102
RTVSPost2010PropOp39
 70
     1
102
RTVSPost2010Prop40
 90
        0
102
RTVSPost2010PropOp40
 70
     1
102
RTVSPost2010Prop41ColorIndex
 90
       18
102
RTVSPost2010Prop41ColorRGB
 90
        0
102
RTVSPost2010PropOp41
 70
     1
102
RTVSPost2010Prop42
 90
       50
102
RTVSPost2010PropOp42
 70
     1
102
RTVSPost2010Prop43
 90
        3
102
RTVSPost2010PropOp43
 70
     1
102
RTVSPost2010Prop44ColorIndex
 90
        5
102
RTVSPost2010Prop44ColorRGB
 90
      255
102
RTVSPost2010PropOp44
 70
     1
102
RTVSPost2010Prop45
280
     0
102
RTVSPost2010PropOp45
 70
     1
102
RTVSPost2010Prop46
 90
       50
102
RTVSPost2010PropOp46
 70
     1
102
RTVSPost2010Prop47
 90
       50
102
RTVSPost2010PropOp47
 70
     1
102
RTVSPost2010Prop48
 90
       50
102
RTVSPost2010PropOp48
 70
     1
102
RTVSPost2010Prop49
280
     0
102
RTVSPost2010PropOp49
 70
     1
102
RTVSPost2010Prop50
 90
       50
102
RTVSPost2010PropOp50
 70
     1
102
RTVSPost2010Prop51ColorIndex
 90
      256
102
RTVSPost2010Prop51ColorRGB
 90
-16777216
102
RTVSPost2010PropOp51
 70
     0
102
RTVSPost2010Prop52
140
1.0
102
RTVSPost2010PropOp52
 70
     0
102
RTVSPost2010Prop53
 90
        2
102
RTVSPost2010PropOp53
 70
     1
102
RTVSPost2010Prop54
  1
strokes_ogs.tif
102
RTVSPost2010PropOp54
 70
     1
102
RTVSPost2010Prop55
280
     0
102
RTVSPost2010PropOp55
 70
     1
102
RTVSPost2010Prop56
140
1.0
102
RTVSPost2010PropOp56
 70
     1
102
RTVSPost2010Prop57
140
1.0
102
RTVSPost2010PropOp57
 70
     1
  0
XRECORD
  5
4B6
102
{ACAD_REACTORS
330
4B5
102
}
330
4B5
100
AcDbXrecord
280
     1
102
RTVSPropertyOp0
 70
     1
102
RTVSPropertyOp1
 70
     1
102
RTVSPropertyOp2
 70
     1
102
RTVSPropertyOp3
 70
     1
102
RTVSPropertyOp4
 70
     1
102
RTVSPropertyOp5
 70
     1
102
RTVSPropertyOp6
 70
     1
102
RTVSPropertyOp7
 70
     1
102
RTVSPropertyOp8
 70
     1
102
RTVSPropertyOp9
 70
     1
102
RTVSPropertyOp10
 70
     1
102
RTVSPropertyOp11
 70
     1
102
RTVSPropertyOp12
 70
     1
102
RTVSPropertyOp13
 70
     1
102
RTVSPropertyOp14
 70
     1
102
RTVSPropertyOp15
 70
     1
102
RTVSPropertyOp16
 70
     1
102
RTVSPropertyOp17
 70
     1
102
RTVSPropertyOp18
 70
     1
102
RTVSPropertyOp19
 70
     1
102
RTVSPropertyOp20
 70
     1
102
RTVSPropertyOp21
 70
     1
102
RTVSPropertyOp22
 70
     1
102
RTVSPropertyOp23
 70
     1
102
RTVSPropertyOp24
 70
     1
102
RTVSPropertyOp25
 70
     1
102
RTVSPropertyOp26
 70
     1
102
RTVSPropertyOp27
 70
     1
102
RTVSPropertyOp28
 70
     1
102
RTVSPropertyOp29
 70
     1
102
RTVSPropertyOp30
 70
     1
102
RTVSPropertyOp31
 70
     1
102
RTVSPropertyOp32
 70
     1
102
RTVSPropertyOp33
 70
     1
102
RTVSPropertyOp34
 70
     1
102
RTVSPropertyOp35
 70
     1
102
RTVSPropertyOp36
 70
     1
102
RTVSPropertyOp37
 70
     1
102
RTVSPropertyOp38
 70
     1
102
RTVSPropertyOp39
 70
     1
102
RTVSPropertyOp40
 70
     1
102
RTVSPropertyOp41
 70
     1
102
RTVSPropertyOp42
 70
     1
102
RTVSPropertyOp43
 70
     1
102
RTVSPropertyOp44
 70
     1
102
RTVSPropertyOp45
 70
     1
102
RTVSPropertyOp46
 70
     1
102
RTVSPropertyOp47
 70
     1
102
RTVSPropertyOp48
 70
     1
102
RTVSPropertyOp49
 70
     1
102
RTVSPropertyOp50
 70
     1
102
RTVSPropertyOp51
 70
     0
102
RTVSPropertyOp52
 70
     0
102
RTVSPropertyOp53
 70
     1
102
RTVSPropertyOp54
 70
     1
102
RTVSPropertyOp55
 70
     1
102
RTVSPropertyOp56
 70
     1
102
RTVSPropertyOp57
 70
     1
102
RTVSPost2010Prop28
280
     0
102
RTVSPost2010PropOp28
 70
     1
102
RTVSPost2010Prop29
280
     1
102
RTVSPost2010PropOp29
 70
     1
102
RTVSPost2010Prop30
280
     1
102
RTVSPost2010PropOp30
 70
     1
102
RTVSPost2010Prop31
280
     0
102
RTVSPost2010PropOp31
 70
     1
102
RTVSPost2010Prop32
280
     0
102
RTVSPost2010PropOp32
 70
     1
102
RTVSPost2010Prop33
280
     0
102
RTVSPost2010PropOp33
 70
     1
102
RTVSPost2010Prop34
280
     0
102
RTVSPost2010PropOp34
 70
     1
102
RTVSPost2010Prop35
280
     0
102
RTVSPost2010PropOp35
 70
     1
102
RTVSPost2010Prop36
280
     0
102
RTVSPost2010PropOp36
 70
     1
102
RTVSPost2010Prop37
 90
       50
102
RTVSPost2010PropOp37
 70
     1
102
RTVSPost2010Prop38
140
0.0
102
RTVSPost2010PropOp38
 70
     1
102
RTVSPost2010Prop39
140
1.0
102
RTVSPost2010PropOp39
 70
     1
102
RTVSPost2010Prop40
 90
        0
102
RTVSPost2010PropOp40
 70
     1
102
RTVSPost2010Prop41ColorIndex
 90
       18
102
RTVSPost2010Prop41ColorRGB
 90
        0
102
RTVSPost2010PropOp41
 70
     1
102
RTVSPost2010Prop42
 90
       50
102
RTVSPost2010PropOp42
 70
     1
102
RTVSPost2010Prop43
 90
        3
102
RTVSPost2010PropOp43
 70
     1
102
RTVSPost2010Prop44ColorIndex
 90
        5
102
RTVSPost2010Prop44ColorRGB
 90
      255
102
RTVSPost2010PropOp44
 70
     1
102
RTVSPost2010Prop45
280
     0
102
RTVSPost2010PropOp45
 70
     1
102
RTVSPost2010Prop46
 90
       50
102
RTVSPost2010PropOp46
 70
     1
102
RTVSPost2010Prop47
 90
       50
102
RTVSPost2010PropOp47
 70
     1
102
RTVSPost2010Prop48
 90
       50
102
RTVSPost2010PropOp48
 70
     1
102
RTVSPost2010Prop49
280
     0
102
RTVSPost2010PropOp49
 70
     1
102
RTVSPost2010Prop50
 90
       50
102
RTVSPost2010PropOp50
 70
     1
102
RTVSPost2010Prop51ColorIndex
 90
      256
102
RTVSPost2010Prop51ColorRGB
 90
-16777216
102
RTVSPost2010PropOp51
 70
     0
102
RTVSPost2010Prop52
140
1.0
102
RTVSPost2010PropOp52
 70
     0
102
RTVSPost2010Prop53
 90
        2
102
RTVSPost2010PropOp53
 70
     1
102
RTVSPost2010Prop54
  1
strokes_ogs.tif
102
RTVSPost2010PropOp54
 70
     1
102
RTVSPost2010Prop55
280
     0
102
RTVSPost2010PropOp55
 70
     1
102
RTVSPost2010Prop56
140
1.0
102
RTVSPost2010PropOp56
 70
     1
102
RTVSPost2010Prop57
140
1.0
102
RTVSPost2010PropOp57
 70
     1
  0
XRECORD
  5
4D6
102
{ACAD_REACTORS
330
4D5
102
}
330
4D5
100
AcDbXrecord
280
     1
102
RTVSPropertyOp0
 70
     1
102
RTVSPropertyOp1
 70
     1
102
RTVSPropertyOp2
 70
     1
102
RTVSPropertyOp3
 70
     1
102
RTVSPropertyOp4
 70
     1
102
RTVSPropertyOp5
 70
     1
102
RTVSPropertyOp6
 70
     1
102
RTVSPropertyOp7
 70
     1
102
RTVSPropertyOp8
 70
     1
102
RTVSPropertyOp9
 70
     1
102
RTVSPropertyOp10
 70
     1
102
RTVSPropertyOp11
 70
     1
102
RTVSPropertyOp12
 70
     1
102
RTVSPropertyOp13
 70
     1
102
RTVSPropertyOp14
 70
     1
102
RTVSPropertyOp15
 70
     1
102
RTVSPropertyOp16
 70
     1
102
RTVSPropertyOp17
 70
     1
102
RTVSPropertyOp18
 70
     1
102
RTVSPropertyOp19
 70
     1
102
RTVSPropertyOp20
 70
     1
102
RTVSPropertyOp21
 70
     1
102
RTVSPropertyOp22
 70
     1
102
RTVSPropertyOp23
 70
     1
102
RTVSPropertyOp24
 70
     1
102
RTVSPropertyOp25
 70
     1
102
RTVSPropertyOp26
 70
     1
102
RTVSPropertyOp27
 70
     1
102
RTVSPropertyOp28
 70
     1
102
RTVSPropertyOp29
 70
     1
102
RTVSPropertyOp30
 70
     1
102
RTVSPropertyOp31
 70
     1
102
RTVSPropertyOp32
 70
     1
102
RTVSPropertyOp33
 70
     1
102
RTVSPropertyOp34
 70
     1
102
RTVSPropertyOp35
 70
     1
102
RTVSPropertyOp36
 70
     1
102
RTVSPropertyOp37
 70
     1
102
RTVSPropertyOp38
 70
     1
102
RTVSPropertyOp39
 70
     1
102
RTVSPropertyOp40
 70
     1
102
RTVSPropertyOp41
 70
     1
102
RTVSPropertyOp42
 70
     1
102
RTVSPropertyOp43
 70
     1
102
RTVSPropertyOp44
 70
     1
102
RTVSPropertyOp45
 70
     1
102
RTVSPropertyOp46
 70
     1
102
RTVSPropertyOp47
 70
     1
102
RTVSPropertyOp48
 70
     1
102
RTVSPropertyOp49
 70
     1
102
RTVSPropertyOp50
 70
     1
102
RTVSPropertyOp51
 70
     0
102
RTVSPropertyOp52
 70
     0
102
RTVSPropertyOp53
 70
     1
102
RTVSPropertyOp54
 70
     1
102
RTVSPropertyOp55
 70
     1
102
RTVSPropertyOp56
 70
     1
102
RTVSPropertyOp57
 70
     1
102
RTVSPost2010Prop28
280
     0
102
RTVSPost2010PropOp28
 70
     1
102
RTVSPost2010Prop29
280
     1
102
RTVSPost2010PropOp29
 70
     1
102
RTVSPost2010Prop30
280
     1
102
RTVSPost2010PropOp30
 70
     1
102
RTVSPost2010Prop31
280
     0
102
RTVSPost2010PropOp31
 70
     1
102
RTVSPost2010Prop32
280
     0
102
RTVSPost2010PropOp32
 70
     1
102
RTVSPost2010Prop33
280
     0
102
RTVSPost2010PropOp33
 70
     1
102
RTVSPost2010Prop34
280
     0
102
RTVSPost2010PropOp34
 70
     1
102
RTVSPost2010Prop35
280
     0
102
RTVSPost2010PropOp35
 70
     1
102
RTVSPost2010Prop36
280
     0
102
RTVSPost2010PropOp36
 70
     1
102
RTVSPost2010Prop37
 90
       50
102
RTVSPost2010PropOp37
 70
     1
102
RTVSPost2010Prop38
140
0.0
102
RTVSPost2010PropOp38
 70
     1
102
RTVSPost2010Prop39
140
1.0
102
RTVSPost2010PropOp39
 70
     1
102
RTVSPost2010Prop40
 90
        0
102
RTVSPost2010PropOp40
 70
     1
102
RTVSPost2010Prop41ColorIndex
 90
       18
102
RTVSPost2010Prop41ColorRGB
 90
        0
102
RTVSPost2010PropOp41
 70
     1
102
RTVSPost2010Prop42
 90
       50
102
RTVSPost2010PropOp42
 70
     1
102
RTVSPost2010Prop43
 90
        3
102
RTVSPost2010PropOp43
 70
     1
102
RTVSPost2010Prop44ColorIndex
 90
        5
102
RTVSPost2010Prop44ColorRGB
 90
      255
102
RTVSPost2010PropOp44
 70
     1
102
RTVSPost2010Prop45
280
     0
102
RTVSPost2010PropOp45
 70
     1
102
RTVSPost2010Prop46
 90
       50
102
RTVSPost2010PropOp46
 70
     1
102
RTVSPost2010Prop47
 90
       50
102
RTVSPost2010PropOp47
 70
     1
102
RTVSPost2010Prop48
 90
       50
102
RTVSPost2010PropOp48
 70
     1
102
RTVSPost2010Prop49
280
     0
102
RTVSPost2010PropOp49
 70
     1
102
RTVSPost2010Prop50
 90
       50
102
RTVSPost2010PropOp50
 70
     1
102
RTVSPost2010Prop51ColorIndex
 90
      256
102
RTVSPost2010Prop51ColorRGB
 90
-16777216
102
RTVSPost2010PropOp51
 70
     0
102
RTVSPost2010Prop52
140
1.0
102
RTVSPost2010PropOp52
 70
     0
102
RTVSPost2010Prop53
 90
        2
102
RTVSPost2010PropOp53
 70
     1
102
RTVSPost2010Prop54
  1
strokes_ogs.tif
102
RTVSPost2010PropOp54
 70
     1
102
RTVSPost2010Prop55
280
     0
102
RTVSPost2010PropOp55
 70
     1
102
RTVSPost2010Prop56
140
1.0
102
RTVSPost2010PropOp56
 70
     1
102
RTVSPost2010Prop57
140
1.0
102
RTVSPost2010PropOp57
 70
     1
  0
ENDSEC
  0
EOF
